  0
SECTION
  2
BLOCKS
  0
ENDSEC
  0
SECTION
  2
ENTITIES
  0
LINE
  8
0
 10
-232.25
 20
-184.5
 11
-232.155
 21
-186.679
  0
LINE
  8
0
 10
-232.155
 20
-186.679
 11
-231.87
 21
-188.841
  0
LINE
  8
0
 10
-231.87
 20
-188.841
 11
-231.398
 21
-190.97
  0
LINE
  8
0
 10
-231.398
 20
-190.97
 11
-230.742
 21
-193.051
  0
LINE
  8
0
 10
-230.742
 20
-193.051
 11
-229.908
 21
-195.065
  0
LINE
  8
0
 10
-229.908
 20
-195.065
 11
-228.901
 21
-197
  0
LINE
  8
0
 10
-228.901
 20
-197
 11
-227.729
 21
-198.839
  0
LINE
  8
0
 10
-227.729
 20
-198.839
 11
-226.401
 21
-200.57
  0
LINE
  8
0
 10
-226.401
 20
-200.57
 11
-224.928
 21
-202.178
  0
LINE
  8
0
 10
-224.928
 20
-202.178
 11
-223.32
 21
-203.651
  0
LINE
  8
0
 10
-223.32
 20
-203.651
 11
-221.589
 21
-204.979
  0
LINE
  8
0
 10
-221.589
 20
-204.979
 11
-219.75
 21
-206.151
  0
LINE
  8
0
 10
-219.75
 20
-206.151
 11
-217.815
 21
-207.158
  0
LINE
  8
0
 10
-217.815
 20
-207.158
 11
-215.801
 21
-207.992
  0
LINE
  8
0
 10
-215.801
 20
-207.992
 11
-213.72
 21
-208.648
  0
LINE
  8
0
 10
-213.72
 20
-208.648
 11
-211.591
 21
-209.12
  0
LINE
  8
0
 10
-211.591
 20
-209.12
 11
-209.429
 21
-209.405
  0
LINE
  8
0
 10
-209.429
 20
-209.405
 11
-207.25
 21
-209.5
  0
LINE
  8
0
 10
-207.25
 20
-209.5
 11
207.25
 21
-209.5
  0
LINE
  8
0
 10
207.25
 20
-209.5
 11
209.429
 21
-209.405
  0
LINE
  8
0
 10
209.429
 20
-209.405
 11
211.591
 21
-209.12
  0
LINE
  8
0
 10
211.591
 20
-209.12
 11
213.72
 21
-208.648
  0
LINE
  8
0
 10
213.72
 20
-208.648
 11
215.801
 21
-207.992
  0
LINE
  8
0
 10
215.801
 20
-207.992
 11
217.815
 21
-207.158
  0
LINE
  8
0
 10
217.815
 20
-207.158
 11
219.75
 21
-206.151
  0
LINE
  8
0
 10
219.75
 20
-206.151
 11
221.589
 21
-204.979
  0
LINE
  8
0
 10
221.589
 20
-204.979
 11
223.32
 21
-203.651
  0
LINE
  8
0
 10
223.32
 20
-203.651
 11
224.928
 21
-202.178
  0
LINE
  8
0
 10
224.928
 20
-202.178
 11
226.401
 21
-200.57
  0
LINE
  8
0
 10
226.401
 20
-200.57
 11
227.729
 21
-198.839
  0
LINE
  8
0
 10
227.729
 20
-198.839
 11
228.901
 21
-197
  0
LINE
  8
0
 10
228.901
 20
-197
 11
229.908
 21
-195.065
  0
LINE
  8
0
 10
229.908
 20
-195.065
 11
230.742
 21
-193.051
  0
LINE
  8
0
 10
230.742
 20
-193.051
 11
231.398
 21
-190.97
  0
LINE
  8
0
 10
231.398
 20
-190.97
 11
231.87
 21
-188.841
  0
LINE
  8
0
 10
231.87
 20
-188.841
 11
232.155
 21
-186.679
  0
LINE
  8
0
 10
232.155
 20
-186.679
 11
232.25
 21
-184.5
  0
LINE
  8
0
 10
232.25
 20
-184.5
 11
232.25
 21
184.5
  0
LINE
  8
0
 10
232.25
 20
184.5
 11
232.155
 21
186.679
  0
LINE
  8
0
 10
232.155
 20
186.679
 11
231.87
 21
188.841
  0
LINE
  8
0
 10
231.87
 20
188.841
 11
231.398
 21
190.97
  0
LINE
  8
0
 10
231.398
 20
190.97
 11
230.742
 21
193.051
  0
LINE
  8
0
 10
230.742
 20
193.051
 11
229.908
 21
195.065
  0
LINE
  8
0
 10
229.908
 20
195.065
 11
228.901
 21
197
  0
LINE
  8
0
 10
228.901
 20
197
 11
227.729
 21
198.839
  0
LINE
  8
0
 10
227.729
 20
198.839
 11
226.401
 21
200.57
  0
LINE
  8
0
 10
226.401
 20
200.57
 11
224.928
 21
202.178
  0
LINE
  8
0
 10
224.928
 20
202.178
 11
223.32
 21
203.651
  0
LINE
  8
0
 10
223.32
 20
203.651
 11
221.589
 21
204.979
  0
LINE
  8
0
 10
221.589
 20
204.979
 11
219.75
 21
206.151
  0
LINE
  8
0
 10
219.75
 20
206.151
 11
217.815
 21
207.158
  0
LINE
  8
0
 10
217.815
 20
207.158
 11
215.801
 21
207.992
  0
LINE
  8
0
 10
215.801
 20
207.992
 11
213.72
 21
208.648
  0
LINE
  8
0
 10
213.72
 20
208.648
 11
211.591
 21
209.12
  0
LINE
  8
0
 10
211.591
 20
209.12
 11
209.429
 21
209.405
  0
LINE
  8
0
 10
209.429
 20
209.405
 11
207.25
 21
209.5
  0
LINE
  8
0
 10
207.25
 20
209.5
 11
-207.25
 21
209.5
  0
LINE
  8
0
 10
-207.25
 20
209.5
 11
-209.429
 21
209.405
  0
LINE
  8
0
 10
-209.429
 20
209.405
 11
-211.591
 21
209.12
  0
LINE
  8
0
 10
-211.591
 20
209.12
 11
-213.72
 21
208.648
  0
LINE
  8
0
 10
-213.72
 20
208.648
 11
-215.801
 21
207.992
  0
LINE
  8
0
 10
-215.801
 20
207.992
 11
-217.815
 21
207.158
  0
LINE
  8
0
 10
-217.815
 20
207.158
 11
-219.75
 21
206.151
  0
LINE
  8
0
 10
-219.75
 20
206.151
 11
-221.589
 21
204.979
  0
LINE
  8
0
 10
-221.589
 20
204.979
 11
-223.32
 21
203.651
  0
LINE
  8
0
 10
-223.32
 20
203.651
 11
-224.928
 21
202.178
  0
LINE
  8
0
 10
-224.928
 20
202.178
 11
-226.401
 21
200.57
  0
LINE
  8
0
 10
-226.401
 20
200.57
 11
-227.729
 21
198.839
  0
LINE
  8
0
 10
-227.729
 20
198.839
 11
-228.901
 21
197
  0
LINE
  8
0
 10
-228.901
 20
197
 11
-229.908
 21
195.065
  0
LINE
  8
0
 10
-229.908
 20
195.065
 11
-230.742
 21
193.051
  0
LINE
  8
0
 10
-230.742
 20
193.051
 11
-231.398
 21
190.97
  0
LINE
  8
0
 10
-231.398
 20
190.97
 11
-231.87
 21
188.841
  0
LINE
  8
0
 10
-231.87
 20
188.841
 11
-232.155
 21
186.679
  0
LINE
  8
0
 10
-232.155
 20
186.679
 11
-232.25
 21
184.5
  0
LINE
  8
0
 10
-232.25
 20
184.5
 11
-232.25
 21
-184.5
  0
LINE
  8
0
 10
-215.14
 20
50.7
 11
-215.085
 21
51.1895
  0
LINE
  8
0
 10
-215.085
 20
51.1895
 11
-214.922
 21
51.6545
  0
LINE
  8
0
 10
-214.922
 20
51.6545
 11
-214.66
 21
52.0717
  0
LINE
  8
0
 10
-214.66
 20
52.0717
 11
-214.312
 21
52.42
  0
LINE
  8
0
 10
-214.312
 20
52.42
 11
-213.895
 21
52.6821
  0
LINE
  8
0
 10
-213.895
 20
52.6821
 11
-213.43
 21
52.8448
  0
LINE
  8
0
 10
-213.43
 20
52.8448
 11
-212.94
 21
52.9
  0
LINE
  8
0
 10
-212.94
 20
52.9
 11
-212.45
 21
52.8448
  0
LINE
  8
0
 10
-212.45
 20
52.8448
 11
-211.985
 21
52.6821
  0
LINE
  8
0
 10
-211.985
 20
52.6821
 11
-211.568
 21
52.42
  0
LINE
  8
0
 10
-211.568
 20
52.42
 11
-211.22
 21
52.0717
  0
LINE
  8
0
 10
-211.22
 20
52.0717
 11
-210.958
 21
51.6545
  0
LINE
  8
0
 10
-210.958
 20
51.6545
 11
-210.795
 21
51.1895
  0
LINE
  8
0
 10
-210.795
 20
51.1895
 11
-210.74
 21
50.7
  0
LINE
  8
0
 10
-210.74
 20
50.7
 11
-210.795
 21
50.2105
  0
LINE
  8
0
 10
-210.795
 20
50.2105
 11
-210.958
 21
49.7455
  0
LINE
  8
0
 10
-210.958
 20
49.7455
 11
-211.22
 21
49.3283
  0
LINE
  8
0
 10
-211.22
 20
49.3283
 11
-211.568
 21
48.98
  0
LINE
  8
0
 10
-211.568
 20
48.98
 11
-211.985
 21
48.7179
  0
LINE
  8
0
 10
-211.985
 20
48.7179
 11
-212.45
 21
48.5552
  0
LINE
  8
0
 10
-212.45
 20
48.5552
 11
-212.94
 21
48.5
  0
LINE
  8
0
 10
-212.94
 20
48.5
 11
-213.43
 21
48.5552
  0
LINE
  8
0
 10
-213.43
 20
48.5552
 11
-213.895
 21
48.7179
  0
LINE
  8
0
 10
-213.895
 20
48.7179
 11
-214.312
 21
48.98
  0
LINE
  8
0
 10
-214.312
 20
48.98
 11
-214.66
 21
49.3283
  0
LINE
  8
0
 10
-214.66
 20
49.3283
 11
-214.922
 21
49.7455
  0
LINE
  8
0
 10
-214.922
 20
49.7455
 11
-215.085
 21
50.2105
  0
LINE
  8
0
 10
-215.085
 20
50.2105
 11
-215.14
 21
50.7
  0
LINE
  8
0
 10
-206.742
 20
-0.246243
 11
-206.742
 21
0.246243
  0
LINE
  8
0
 10
-206.742
 20
0.246243
 11
-206.682
 21
0.734998
  0
LINE
  8
0
 10
-206.682
 20
0.734998
 11
-206.562
 21
1.21261
  0
LINE
  8
0
 10
-206.562
 20
1.21261
 11
-206.384
 21
1.67184
  0
LINE
  8
0
 10
-206.384
 20
1.67184
 11
-206.151
 21
2.10573
  0
LINE
  8
0
 10
-206.151
 20
2.10573
 11
-205.866
 21
2.5077
  0
LINE
  8
0
 10
-205.866
 20
2.5077
 11
-205.535
 21
2.87165
  0
LINE
  8
0
 10
-205.535
 20
2.87165
 11
-205.161
 21
3.19207
  0
LINE
  8
0
 10
-205.161
 20
3.19207
 11
-204.75
 21
3.4641
  0
LINE
  8
0
 10
-204.75
 20
3.4641
 11
-204.309
 21
3.68362
  0
LINE
  8
0
 10
-204.309
 20
3.68362
 11
-203.845
 21
3.8473
  0
LINE
  8
0
 10
-203.845
 20
3.8473
 11
-203.364
 21
3.95266
  0
LINE
  8
0
 10
-203.364
 20
3.95266
 11
-202.873
 21
3.9981
  0
LINE
  8
0
 10
-202.873
 20
3.9981
 11
-202.381
 21
3.98294
  0
LINE
  8
0
 10
-202.381
 20
3.98294
 11
-201.894
 21
3.90739
  0
LINE
  8
0
 10
-201.894
 20
3.90739
 11
-201.421
 21
3.77262
  0
LINE
  8
0
 10
-201.421
 20
3.77262
 11
-200.967
 21
3.58065
  0
LINE
  8
0
 10
-200.967
 20
3.58065
 11
-200.541
 21
3.33441
  0
LINE
  8
0
 10
-200.541
 20
3.33441
 11
-200.148
 21
3.03762
  0
LINE
  8
0
 10
-200.148
 20
3.03762
 11
-199.794
 21
2.69478
  0
LINE
  8
0
 10
-199.794
 20
2.69478
 11
-199.485
 21
2.3111
  0
LINE
  8
0
 10
-199.485
 20
2.3111
 11
-199.226
 21
1.89237
  0
LINE
  8
0
 10
-199.226
 20
1.89237
 11
-199.02
 21
1.44497
  0
LINE
  8
0
 10
-199.02
 20
1.44497
 11
-198.871
 21
0.975655
  0
LINE
  8
0
 10
-198.871
 20
0.975655
 11
-198.78
 21
0.491552
  0
LINE
  8
0
 10
-198.78
 20
0.491552
 11
-198.75
 21
0
  0
LINE
  8
0
 10
-198.75
 20
0
 11
-198.78
 21
-0.491552
  0
LINE
  8
0
 10
-198.78
 20
-0.491552
 11
-198.871
 21
-0.975655
  0
LINE
  8
0
 10
-198.871
 20
-0.975655
 11
-199.02
 21
-1.44497
  0
LINE
  8
0
 10
-199.02
 20
-1.44497
 11
-199.226
 21
-1.89237
  0
LINE
  8
0
 10
-199.226
 20
-1.89237
 11
-199.485
 21
-2.3111
  0
LINE
  8
0
 10
-199.485
 20
-2.3111
 11
-199.794
 21
-2.69478
  0
LINE
  8
0
 10
-199.794
 20
-2.69478
 11
-200.148
 21
-3.03762
  0
LINE
  8
0
 10
-200.148
 20
-3.03762
 11
-200.541
 21
-3.33441
  0
LINE
  8
0
 10
-200.541
 20
-3.33441
 11
-200.967
 21
-3.58065
  0
LINE
  8
0
 10
-200.967
 20
-3.58065
 11
-201.421
 21
-3.77262
  0
LINE
  8
0
 10
-201.421
 20
-3.77262
 11
-201.894
 21
-3.90739
  0
LINE
  8
0
 10
-201.894
 20
-3.90739
 11
-202.381
 21
-3.98294
  0
LINE
  8
0
 10
-202.381
 20
-3.98294
 11
-202.873
 21
-3.9981
  0
LINE
  8
0
 10
-202.873
 20
-3.9981
 11
-203.364
 21
-3.95266
  0
LINE
  8
0
 10
-203.364
 20
-3.95266
 11
-203.845
 21
-3.8473
  0
LINE
  8
0
 10
-203.845
 20
-3.8473
 11
-204.309
 21
-3.68362
  0
LINE
  8
0
 10
-204.309
 20
-3.68362
 11
-204.75
 21
-3.4641
  0
LINE
  8
0
 10
-204.75
 20
-3.4641
 11
-205.161
 21
-3.19207
  0
LINE
  8
0
 10
-205.161
 20
-3.19207
 11
-205.535
 21
-2.87165
  0
LINE
  8
0
 10
-205.535
 20
-2.87165
 11
-205.866
 21
-2.5077
  0
LINE
  8
0
 10
-205.866
 20
-2.5077
 11
-206.151
 21
-2.10573
  0
LINE
  8
0
 10
-206.151
 20
-2.10573
 11
-206.384
 21
-1.67184
  0
LINE
  8
0
 10
-206.384
 20
-1.67184
 11
-206.562
 21
-1.21261
  0
LINE
  8
0
 10
-206.562
 20
-1.21261
 11
-206.682
 21
-0.734998
  0
LINE
  8
0
 10
-206.682
 20
-0.734998
 11
-206.742
 21
-0.246243
  0
LINE
  8
0
 10
-173.75
 20
-190.19
 11
-173.695
 21
-189.7
  0
LINE
  8
0
 10
-173.695
 20
-189.7
 11
-173.532
 21
-189.235
  0
LINE
  8
0
 10
-173.532
 20
-189.235
 11
-173.27
 21
-188.818
  0
LINE
  8
0
 10
-173.27
 20
-188.818
 11
-172.922
 21
-188.47
  0
LINE
  8
0
 10
-172.922
 20
-188.47
 11
-172.505
 21
-188.208
  0
LINE
  8
0
 10
-172.505
 20
-188.208
 11
-172.04
 21
-188.045
  0
LINE
  8
0
 10
-172.04
 20
-188.045
 11
-171.55
 21
-187.99
  0
LINE
  8
0
 10
-171.55
 20
-187.99
 11
-171.06
 21
-188.045
  0
LINE
  8
0
 10
-171.06
 20
-188.045
 11
-170.595
 21
-188.208
  0
LINE
  8
0
 10
-170.595
 20
-188.208
 11
-170.178
 21
-188.47
  0
LINE
  8
0
 10
-170.178
 20
-188.47
 11
-169.83
 21
-188.818
  0
LINE
  8
0
 10
-169.83
 20
-188.818
 11
-169.568
 21
-189.235
  0
LINE
  8
0
 10
-169.568
 20
-189.235
 11
-169.405
 21
-189.7
  0
LINE
  8
0
 10
-169.405
 20
-189.7
 11
-169.35
 21
-190.19
  0
LINE
  8
0
 10
-169.35
 20
-190.19
 11
-169.405
 21
-190.68
  0
LINE
  8
0
 10
-169.405
 20
-190.68
 11
-169.568
 21
-191.145
  0
LINE
  8
0
 10
-169.568
 20
-191.145
 11
-169.83
 21
-191.562
  0
LINE
  8
0
 10
-169.83
 20
-191.562
 11
-170.178
 21
-191.91
  0
LINE
  8
0
 10
-170.178
 20
-191.91
 11
-170.595
 21
-192.172
  0
LINE
  8
0
 10
-170.595
 20
-192.172
 11
-171.06
 21
-192.335
  0
LINE
  8
0
 10
-171.06
 20
-192.335
 11
-171.55
 21
-192.39
  0
LINE
  8
0
 10
-171.55
 20
-192.39
 11
-172.04
 21
-192.335
  0
LINE
  8
0
 10
-172.04
 20
-192.335
 11
-172.505
 21
-192.172
  0
LINE
  8
0
 10
-172.505
 20
-192.172
 11
-172.922
 21
-191.91
  0
LINE
  8
0
 10
-172.922
 20
-191.91
 11
-173.27
 21
-191.562
  0
LINE
  8
0
 10
-173.27
 20
-191.562
 11
-173.532
 21
-191.145
  0
LINE
  8
0
 10
-173.532
 20
-191.145
 11
-173.695
 21
-190.68
  0
LINE
  8
0
 10
-173.695
 20
-190.68
 11
-173.75
 21
-190.19
  0
LINE
  8
0
 10
-173.75
 20
190.19
 11
-173.695
 21
190.68
  0
LINE
  8
0
 10
-173.695
 20
190.68
 11
-173.532
 21
191.145
  0
LINE
  8
0
 10
-173.532
 20
191.145
 11
-173.27
 21
191.562
  0
LINE
  8
0
 10
-173.27
 20
191.562
 11
-172.922
 21
191.91
  0
LINE
  8
0
 10
-172.922
 20
191.91
 11
-172.505
 21
192.172
  0
LINE
  8
0
 10
-172.505
 20
192.172
 11
-172.04
 21
192.335
  0
LINE
  8
0
 10
-172.04
 20
192.335
 11
-171.55
 21
192.39
  0
LINE
  8
0
 10
-171.55
 20
192.39
 11
-171.06
 21
192.335
  0
LINE
  8
0
 10
-171.06
 20
192.335
 11
-170.595
 21
192.172
  0
LINE
  8
0
 10
-170.595
 20
192.172
 11
-170.178
 21
191.91
  0
LINE
  8
0
 10
-170.178
 20
191.91
 11
-169.83
 21
191.562
  0
LINE
  8
0
 10
-169.83
 20
191.562
 11
-169.568
 21
191.145
  0
LINE
  8
0
 10
-169.568
 20
191.145
 11
-169.405
 21
190.68
  0
LINE
  8
0
 10
-169.405
 20
190.68
 11
-169.35
 21
190.19
  0
LINE
  8
0
 10
-169.35
 20
190.19
 11
-169.405
 21
189.7
  0
LINE
  8
0
 10
-169.405
 20
189.7
 11
-169.568
 21
189.235
  0
LINE
  8
0
 10
-169.568
 20
189.235
 11
-169.83
 21
188.818
  0
LINE
  8
0
 10
-169.83
 20
188.818
 11
-170.178
 21
188.47
  0
LINE
  8
0
 10
-170.178
 20
188.47
 11
-170.595
 21
188.208
  0
LINE
  8
0
 10
-170.595
 20
188.208
 11
-171.06
 21
188.045
  0
LINE
  8
0
 10
-171.06
 20
188.045
 11
-171.55
 21
187.99
  0
LINE
  8
0
 10
-171.55
 20
187.99
 11
-172.04
 21
188.045
  0
LINE
  8
0
 10
-172.04
 20
188.045
 11
-172.505
 21
188.208
  0
LINE
  8
0
 10
-172.505
 20
188.208
 11
-172.922
 21
188.47
  0
LINE
  8
0
 10
-172.922
 20
188.47
 11
-173.27
 21
188.818
  0
LINE
  8
0
 10
-173.27
 20
188.818
 11
-173.532
 21
189.235
  0
LINE
  8
0
 10
-173.532
 20
189.235
 11
-173.695
 21
189.7
  0
LINE
  8
0
 10
-173.695
 20
189.7
 11
-173.75
 21
190.19
  0
LINE
  8
0
 10
-152.76
 20
50.7
 11
-152.705
 21
51.1895
  0
LINE
  8
0
 10
-152.705
 20
51.1895
 11
-152.542
 21
51.6545
  0
LINE
  8
0
 10
-152.542
 20
51.6545
 11
-152.28
 21
52.0717
  0
LINE
  8
0
 10
-152.28
 20
52.0717
 11
-151.932
 21
52.42
  0
LINE
  8
0
 10
-151.932
 20
52.42
 11
-151.515
 21
52.6821
  0
LINE
  8
0
 10
-151.515
 20
52.6821
 11
-151.05
 21
52.8448
  0
LINE
  8
0
 10
-151.05
 20
52.8448
 11
-150.56
 21
52.9
  0
LINE
  8
0
 10
-150.56
 20
52.9
 11
-150.07
 21
52.8448
  0
LINE
  8
0
 10
-150.07
 20
52.8448
 11
-149.605
 21
52.6821
  0
LINE
  8
0
 10
-149.605
 20
52.6821
 11
-149.188
 21
52.42
  0
LINE
  8
0
 10
-149.188
 20
52.42
 11
-148.84
 21
52.0717
  0
LINE
  8
0
 10
-148.84
 20
52.0717
 11
-148.578
 21
51.6545
  0
LINE
  8
0
 10
-148.578
 20
51.6545
 11
-148.415
 21
51.1895
  0
LINE
  8
0
 10
-148.415
 20
51.1895
 11
-148.36
 21
50.7
  0
LINE
  8
0
 10
-148.36
 20
50.7
 11
-148.415
 21
50.2105
  0
LINE
  8
0
 10
-148.415
 20
50.2105
 11
-148.578
 21
49.7455
  0
LINE
  8
0
 10
-148.578
 20
49.7455
 11
-148.84
 21
49.3283
  0
LINE
  8
0
 10
-148.84
 20
49.3283
 11
-149.188
 21
48.98
  0
LINE
  8
0
 10
-149.188
 20
48.98
 11
-149.605
 21
48.7179
  0
LINE
  8
0
 10
-149.605
 20
48.7179
 11
-150.07
 21
48.5552
  0
LINE
  8
0
 10
-150.07
 20
48.5552
 11
-150.56
 21
48.5
  0
LINE
  8
0
 10
-150.56
 20
48.5
 11
-151.05
 21
48.5552
  0
LINE
  8
0
 10
-151.05
 20
48.5552
 11
-151.515
 21
48.7179
  0
LINE
  8
0
 10
-151.515
 20
48.7179
 11
-151.932
 21
48.98
  0
LINE
  8
0
 10
-151.932
 20
48.98
 11
-152.28
 21
49.3283
  0
LINE
  8
0
 10
-152.28
 20
49.3283
 11
-152.542
 21
49.7455
  0
LINE
  8
0
 10
-152.542
 20
49.7455
 11
-152.705
 21
50.2105
  0
LINE
  8
0
 10
-152.705
 20
50.2105
 11
-152.76
 21
50.7
  0
LINE
  8
0
 10
-108.5
 20
-202
 11
-108.445
 21
-201.51
  0
LINE
  8
0
 10
-108.445
 20
-201.51
 11
-108.282
 21
-201.045
  0
LINE
  8
0
 10
-108.282
 20
-201.045
 11
-108.02
 21
-200.628
  0
LINE
  8
0
 10
-108.02
 20
-200.628
 11
-107.672
 21
-200.28
  0
LINE
  8
0
 10
-107.672
 20
-200.28
 11
-107.255
 21
-200.018
  0
LINE
  8
0
 10
-107.255
 20
-200.018
 11
-106.79
 21
-199.855
  0
LINE
  8
0
 10
-106.79
 20
-199.855
 11
-106.3
 21
-199.8
  0
LINE
  8
0
 10
-106.3
 20
-199.8
 11
-105.81
 21
-199.855
  0
LINE
  8
0
 10
-105.81
 20
-199.855
 11
-105.345
 21
-200.018
  0
LINE
  8
0
 10
-105.345
 20
-200.018
 11
-104.928
 21
-200.28
  0
LINE
  8
0
 10
-104.928
 20
-200.28
 11
-104.58
 21
-200.628
  0
LINE
  8
0
 10
-104.58
 20
-200.628
 11
-104.318
 21
-201.045
  0
LINE
  8
0
 10
-104.318
 20
-201.045
 11
-104.155
 21
-201.51
  0
LINE
  8
0
 10
-104.155
 20
-201.51
 11
-104.1
 21
-202
  0
LINE
  8
0
 10
-104.1
 20
-202
 11
-104.155
 21
-202.49
  0
LINE
  8
0
 10
-104.155
 20
-202.49
 11
-104.318
 21
-202.955
  0
LINE
  8
0
 10
-104.318
 20
-202.955
 11
-104.58
 21
-203.372
  0
LINE
  8
0
 10
-104.58
 20
-203.372
 11
-104.928
 21
-203.72
  0
LINE
  8
0
 10
-104.928
 20
-203.72
 11
-105.345
 21
-203.982
  0
LINE
  8
0
 10
-105.345
 20
-203.982
 11
-105.81
 21
-204.145
  0
LINE
  8
0
 10
-105.81
 20
-204.145
 11
-106.3
 21
-204.2
  0
LINE
  8
0
 10
-106.3
 20
-204.2
 11
-106.79
 21
-204.145
  0
LINE
  8
0
 10
-106.79
 20
-204.145
 11
-107.255
 21
-203.982
  0
LINE
  8
0
 10
-107.255
 20
-203.982
 11
-107.672
 21
-203.72
  0
LINE
  8
0
 10
-107.672
 20
-203.72
 11
-108.02
 21
-203.372
  0
LINE
  8
0
 10
-108.02
 20
-203.372
 11
-108.282
 21
-202.955
  0
LINE
  8
0
 10
-108.282
 20
-202.955
 11
-108.445
 21
-202.49
  0
LINE
  8
0
 10
-108.445
 20
-202.49
 11
-108.5
 21
-202
  0
LINE
  8
0
 10
-108.5
 20
202
 11
-108.445
 21
202.49
  0
LINE
  8
0
 10
-108.445
 20
202.49
 11
-108.282
 21
202.955
  0
LINE
  8
0
 10
-108.282
 20
202.955
 11
-108.02
 21
203.372
  0
LINE
  8
0
 10
-108.02
 20
203.372
 11
-107.672
 21
203.72
  0
LINE
  8
0
 10
-107.672
 20
203.72
 11
-107.255
 21
203.982
  0
LINE
  8
0
 10
-107.255
 20
203.982
 11
-106.79
 21
204.145
  0
LINE
  8
0
 10
-106.79
 20
204.145
 11
-106.3
 21
204.2
  0
LINE
  8
0
 10
-106.3
 20
204.2
 11
-105.81
 21
204.145
  0
LINE
  8
0
 10
-105.81
 20
204.145
 11
-105.345
 21
203.982
  0
LINE
  8
0
 10
-105.345
 20
203.982
 11
-104.928
 21
203.72
  0
LINE
  8
0
 10
-104.928
 20
203.72
 11
-104.58
 21
203.372
  0
LINE
  8
0
 10
-104.58
 20
203.372
 11
-104.318
 21
202.955
  0
LINE
  8
0
 10
-104.318
 20
202.955
 11
-104.155
 21
202.49
  0
LINE
  8
0
 10
-104.155
 20
202.49
 11
-104.1
 21
202
  0
LINE
  8
0
 10
-104.1
 20
202
 11
-104.155
 21
201.51
  0
LINE
  8
0
 10
-104.155
 20
201.51
 11
-104.318
 21
201.045
  0
LINE
  8
0
 10
-104.318
 20
201.045
 11
-104.58
 21
200.628
  0
LINE
  8
0
 10
-104.58
 20
200.628
 11
-104.928
 21
200.28
  0
LINE
  8
0
 10
-104.928
 20
200.28
 11
-105.345
 21
200.018
  0
LINE
  8
0
 10
-105.345
 20
200.018
 11
-105.81
 21
199.855
  0
LINE
  8
0
 10
-105.81
 20
199.855
 11
-106.3
 21
199.8
  0
LINE
  8
0
 10
-106.3
 20
199.8
 11
-106.79
 21
199.855
  0
LINE
  8
0
 10
-106.79
 20
199.855
 11
-107.255
 21
200.018
  0
LINE
  8
0
 10
-107.255
 20
200.018
 11
-107.672
 21
200.28
  0
LINE
  8
0
 10
-107.672
 20
200.28
 11
-108.02
 21
200.628
  0
LINE
  8
0
 10
-108.02
 20
200.628
 11
-108.282
 21
201.045
  0
LINE
  8
0
 10
-108.282
 20
201.045
 11
-108.445
 21
201.51
  0
LINE
  8
0
 10
-108.445
 20
201.51
 11
-108.5
 21
202
  0
LINE
  8
0
 10
-78.4
 20
-202
 11
-78.3448
 21
-201.51
  0
LINE
  8
0
 10
-78.3448
 20
-201.51
 11
-78.1821
 21
-201.045
  0
LINE
  8
0
 10
-78.1821
 20
-201.045
 11
-77.92
 21
-200.628
  0
LINE
  8
0
 10
-77.92
 20
-200.628
 11
-77.5717
 21
-200.28
  0
LINE
  8
0
 10
-77.5717
 20
-200.28
 11
-77.1545
 21
-200.018
  0
LINE
  8
0
 10
-77.1545
 20
-200.018
 11
-76.6895
 21
-199.855
  0
LINE
  8
0
 10
-76.6895
 20
-199.855
 11
-76.2
 21
-199.8
  0
LINE
  8
0
 10
-76.2
 20
-199.8
 11
-75.7105
 21
-199.855
  0
LINE
  8
0
 10
-75.7105
 20
-199.855
 11
-75.2455
 21
-200.018
  0
LINE
  8
0
 10
-75.2455
 20
-200.018
 11
-74.8283
 21
-200.28
  0
LINE
  8
0
 10
-74.8283
 20
-200.28
 11
-74.48
 21
-200.628
  0
LINE
  8
0
 10
-74.48
 20
-200.628
 11
-74.2179
 21
-201.045
  0
LINE
  8
0
 10
-74.2179
 20
-201.045
 11
-74.0552
 21
-201.51
  0
LINE
  8
0
 10
-74.0552
 20
-201.51
 11
-74
 21
-202
  0
LINE
  8
0
 10
-74
 20
-202
 11
-74.0552
 21
-202.49
  0
LINE
  8
0
 10
-74.0552
 20
-202.49
 11
-74.2179
 21
-202.955
  0
LINE
  8
0
 10
-74.2179
 20
-202.955
 11
-74.48
 21
-203.372
  0
LINE
  8
0
 10
-74.48
 20
-203.372
 11
-74.8283
 21
-203.72
  0
LINE
  8
0
 10
-74.8283
 20
-203.72
 11
-75.2455
 21
-203.982
  0
LINE
  8
0
 10
-75.2455
 20
-203.982
 11
-75.7105
 21
-204.145
  0
LINE
  8
0
 10
-75.7105
 20
-204.145
 11
-76.2
 21
-204.2
  0
LINE
  8
0
 10
-76.2
 20
-204.2
 11
-76.6895
 21
-204.145
  0
LINE
  8
0
 10
-76.6895
 20
-204.145
 11
-77.1545
 21
-203.982
  0
LINE
  8
0
 10
-77.1545
 20
-203.982
 11
-77.5717
 21
-203.72
  0
LINE
  8
0
 10
-77.5717
 20
-203.72
 11
-77.92
 21
-203.372
  0
LINE
  8
0
 10
-77.92
 20
-203.372
 11
-78.1821
 21
-202.955
  0
LINE
  8
0
 10
-78.1821
 20
-202.955
 11
-78.3448
 21
-202.49
  0
LINE
  8
0
 10
-78.3448
 20
-202.49
 11
-78.4
 21
-202
  0
LINE
  8
0
 10
-78.4
 20
202
 11
-78.3448
 21
202.49
  0
LINE
  8
0
 10
-78.3448
 20
202.49
 11
-78.1821
 21
202.955
  0
LINE
  8
0
 10
-78.1821
 20
202.955
 11
-77.92
 21
203.372
  0
LINE
  8
0
 10
-77.92
 20
203.372
 11
-77.5717
 21
203.72
  0
LINE
  8
0
 10
-77.5717
 20
203.72
 11
-77.1545
 21
203.982
  0
LINE
  8
0
 10
-77.1545
 20
203.982
 11
-76.6895
 21
204.145
  0
LINE
  8
0
 10
-76.6895
 20
204.145
 11
-76.2
 21
204.2
  0
LINE
  8
0
 10
-76.2
 20
204.2
 11
-75.7105
 21
204.145
  0
LINE
  8
0
 10
-75.7105
 20
204.145
 11
-75.2455
 21
203.982
  0
LINE
  8
0
 10
-75.2455
 20
203.982
 11
-74.8283
 21
203.72
  0
LINE
  8
0
 10
-74.8283
 20
203.72
 11
-74.48
 21
203.372
  0
LINE
  8
0
 10
-74.48
 20
203.372
 11
-74.2179
 21
202.955
  0
LINE
  8
0
 10
-74.2179
 20
202.955
 11
-74.0552
 21
202.49
  0
LINE
  8
0
 10
-74.0552
 20
202.49
 11
-74
 21
202
  0
LINE
  8
0
 10
-74
 20
202
 11
-74.0552
 21
201.51
  0
LINE
  8
0
 10
-74.0552
 20
201.51
 11
-74.2179
 21
201.045
  0
LINE
  8
0
 10
-74.2179
 20
201.045
 11
-74.48
 21
200.628
  0
LINE
  8
0
 10
-74.48
 20
200.628
 11
-74.8283
 21
200.28
  0
LINE
  8
0
 10
-74.8283
 20
200.28
 11
-75.2455
 21
200.018
  0
LINE
  8
0
 10
-75.2455
 20
200.018
 11
-75.7105
 21
199.855
  0
LINE
  8
0
 10
-75.7105
 20
199.855
 11
-76.2
 21
199.8
  0
LINE
  8
0
 10
-76.2
 20
199.8
 11
-76.6895
 21
199.855
  0
LINE
  8
0
 10
-76.6895
 20
199.855
 11
-77.1545
 21
200.018
  0
LINE
  8
0
 10
-77.1545
 20
200.018
 11
-77.5717
 21
200.28
  0
LINE
  8
0
 10
-77.5717
 20
200.28
 11
-77.92
 21
200.628
  0
LINE
  8
0
 10
-77.92
 20
200.628
 11
-78.1821
 21
201.045
  0
LINE
  8
0
 10
-78.1821
 20
201.045
 11
-78.3448
 21
201.51
  0
LINE
  8
0
 10
-78.3448
 20
201.51
 11
-78.4
 21
202
  0
LINE
  8
0
 10
-40.46
 20
187.05
 11
-40.46
 21
197.05
  0
LINE
  8
0
 10
-40.46
 20
197.05
 11
-40.4048
 21
197.54
  0
LINE
  8
0
 10
-40.4048
 20
197.54
 11
-40.2421
 21
198.005
  0
LINE
  8
0
 10
-40.2421
 20
198.005
 11
-39.98
 21
198.422
  0
LINE
  8
0
 10
-39.98
 20
198.422
 11
-39.6317
 21
198.77
  0
LINE
  8
0
 10
-39.6317
 20
198.77
 11
-39.2145
 21
199.032
  0
LINE
  8
0
 10
-39.2145
 20
199.032
 11
-38.7495
 21
199.195
  0
LINE
  8
0
 10
-38.7495
 20
199.195
 11
-38.26
 21
199.25
  0
LINE
  8
0
 10
-38.26
 20
199.25
 11
-37.7705
 21
199.195
  0
LINE
  8
0
 10
-37.7705
 20
199.195
 11
-37.3055
 21
199.032
  0
LINE
  8
0
 10
-37.3055
 20
199.032
 11
-36.8883
 21
198.77
  0
LINE
  8
0
 10
-36.8883
 20
198.77
 11
-36.54
 21
198.422
  0
LINE
  8
0
 10
-36.54
 20
198.422
 11
-36.2779
 21
198.005
  0
LINE
  8
0
 10
-36.2779
 20
198.005
 11
-36.1152
 21
197.54
  0
LINE
  8
0
 10
-36.1152
 20
197.54
 11
-36.06
 21
197.05
  0
LINE
  8
0
 10
-36.06
 20
197.05
 11
-36.06
 21
187.05
  0
LINE
  8
0
 10
-36.06
 20
187.05
 11
-36.1152
 21
186.56
  0
LINE
  8
0
 10
-36.1152
 20
186.56
 11
-36.2779
 21
186.095
  0
LINE
  8
0
 10
-36.2779
 20
186.095
 11
-36.54
 21
185.678
  0
LINE
  8
0
 10
-36.54
 20
185.678
 11
-36.8883
 21
185.33
  0
LINE
  8
0
 10
-36.8883
 20
185.33
 11
-37.3055
 21
185.068
  0
LINE
  8
0
 10
-37.3055
 20
185.068
 11
-37.7705
 21
184.905
  0
LINE
  8
0
 10
-37.7705
 20
184.905
 11
-38.26
 21
184.85
  0
LINE
  8
0
 10
-38.26
 20
184.85
 11
-38.7495
 21
184.905
  0
LINE
  8
0
 10
-38.7495
 20
184.905
 11
-39.2145
 21
185.068
  0
LINE
  8
0
 10
-39.2145
 20
185.068
 11
-39.6317
 21
185.33
  0
LINE
  8
0
 10
-39.6317
 20
185.33
 11
-39.98
 21
185.678
  0
LINE
  8
0
 10
-39.98
 20
185.678
 11
-40.2421
 21
186.095
  0
LINE
  8
0
 10
-40.2421
 20
186.095
 11
-40.4048
 21
186.56
  0
LINE
  8
0
 10
-40.4048
 20
186.56
 11
-40.46
 21
187.05
  0
LINE
  8
0
 10
-30.16
 20
98
 11
-30.1048
 21
98.4895
  0
LINE
  8
0
 10
-30.1048
 20
98.4895
 11
-29.9421
 21
98.9545
  0
LINE
  8
0
 10
-29.9421
 20
98.9545
 11
-29.68
 21
99.3717
  0
LINE
  8
0
 10
-29.68
 20
99.3717
 11
-29.3317
 21
99.72
  0
LINE
  8
0
 10
-29.3317
 20
99.72
 11
-28.9145
 21
99.9821
  0
LINE
  8
0
 10
-28.9145
 20
99.9821
 11
-28.4495
 21
100.145
  0
LINE
  8
0
 10
-28.4495
 20
100.145
 11
-27.96
 21
100.2
  0
LINE
  8
0
 10
-27.96
 20
100.2
 11
-27.4705
 21
100.145
  0
LINE
  8
0
 10
-27.4705
 20
100.145
 11
-27.0055
 21
99.9821
  0
LINE
  8
0
 10
-27.0055
 20
99.9821
 11
-26.5883
 21
99.72
  0
LINE
  8
0
 10
-26.5883
 20
99.72
 11
-26.24
 21
99.3717
  0
LINE
  8
0
 10
-26.24
 20
99.3717
 11
-25.9779
 21
98.9545
  0
LINE
  8
0
 10
-25.9779
 20
98.9545
 11
-25.8152
 21
98.4895
  0
LINE
  8
0
 10
-25.8152
 20
98.4895
 11
-25.76
 21
98
  0
LINE
  8
0
 10
-25.76
 20
98
 11
-25.8152
 21
97.5105
  0
LINE
  8
0
 10
-25.8152
 20
97.5105
 11
-25.9779
 21
97.0455
  0
LINE
  8
0
 10
-25.9779
 20
97.0455
 11
-26.24
 21
96.6283
  0
LINE
  8
0
 10
-26.24
 20
96.6283
 11
-26.5883
 21
96.28
  0
LINE
  8
0
 10
-26.5883
 20
96.28
 11
-27.0055
 21
96.0179
  0
LINE
  8
0
 10
-27.0055
 20
96.0179
 11
-27.4705
 21
95.8552
  0
LINE
  8
0
 10
-27.4705
 20
95.8552
 11
-27.96
 21
95.8
  0
LINE
  8
0
 10
-27.96
 20
95.8
 11
-28.4495
 21
95.8552
  0
LINE
  8
0
 10
-28.4495
 20
95.8552
 11
-28.9145
 21
96.0179
  0
LINE
  8
0
 10
-28.9145
 20
96.0179
 11
-29.3317
 21
96.28
  0
LINE
  8
0
 10
-29.3317
 20
96.28
 11
-29.68
 21
96.6283
  0
LINE
  8
0
 10
-29.68
 20
96.6283
 11
-29.9421
 21
97.0455
  0
LINE
  8
0
 10
-29.9421
 20
97.0455
 11
-30.1048
 21
97.5105
  0
LINE
  8
0
 10
-30.1048
 20
97.5105
 11
-30.16
 21
98
  0
LINE
  8
0
 10
-21.96
 20
-202.05
 11
-21.9048
 21
-201.56
  0
LINE
  8
0
 10
-21.9048
 20
-201.56
 11
-21.7421
 21
-201.095
  0
LINE
  8
0
 10
-21.7421
 20
-201.095
 11
-21.48
 21
-200.678
  0
LINE
  8
0
 10
-21.48
 20
-200.678
 11
-21.1317
 21
-200.33
  0
LINE
  8
0
 10
-21.1317
 20
-200.33
 11
-20.7145
 21
-200.068
  0
LINE
  8
0
 10
-20.7145
 20
-200.068
 11
-20.2495
 21
-199.905
  0
LINE
  8
0
 10
-20.2495
 20
-199.905
 11
-19.76
 21
-199.85
  0
LINE
  8
0
 10
-19.76
 20
-199.85
 11
-19.2705
 21
-199.905
  0
LINE
  8
0
 10
-19.2705
 20
-199.905
 11
-18.8055
 21
-200.068
  0
LINE
  8
0
 10
-18.8055
 20
-200.068
 11
-18.3883
 21
-200.33
  0
LINE
  8
0
 10
-18.3883
 20
-200.33
 11
-18.04
 21
-200.678
  0
LINE
  8
0
 10
-18.04
 20
-200.678
 11
-17.7779
 21
-201.095
  0
LINE
  8
0
 10
-17.7779
 20
-201.095
 11
-17.6152
 21
-201.56
  0
LINE
  8
0
 10
-17.6152
 20
-201.56
 11
-17.56
 21
-202.05
  0
LINE
  8
0
 10
-17.56
 20
-202.05
 11
-17.6152
 21
-202.54
  0
LINE
  8
0
 10
-17.6152
 20
-202.54
 11
-17.7779
 21
-203.005
  0
LINE
  8
0
 10
-17.7779
 20
-203.005
 11
-18.04
 21
-203.422
  0
LINE
  8
0
 10
-18.04
 20
-203.422
 11
-18.3883
 21
-203.77
  0
LINE
  8
0
 10
-18.3883
 20
-203.77
 11
-18.8055
 21
-204.032
  0
LINE
  8
0
 10
-18.8055
 20
-204.032
 11
-19.2705
 21
-204.195
  0
LINE
  8
0
 10
-19.2705
 20
-204.195
 11
-19.76
 21
-204.25
  0
LINE
  8
0
 10
-19.76
 20
-204.25
 11
-20.2495
 21
-204.195
  0
LINE
  8
0
 10
-20.2495
 20
-204.195
 11
-20.7145
 21
-204.032
  0
LINE
  8
0
 10
-20.7145
 20
-204.032
 11
-21.1317
 21
-203.77
  0
LINE
  8
0
 10
-21.1317
 20
-203.77
 11
-21.48
 21
-203.422
  0
LINE
  8
0
 10
-21.48
 20
-203.422
 11
-21.7421
 21
-203.005
  0
LINE
  8
0
 10
-21.7421
 20
-203.005
 11
-21.9048
 21
-202.54
  0
LINE
  8
0
 10
-21.9048
 20
-202.54
 11
-21.96
 21
-202.05
  0
LINE
  8
0
 10
-21.96
 20
-140.95
 11
-21.9048
 21
-140.46
  0
LINE
  8
0
 10
-21.9048
 20
-140.46
 11
-21.7421
 21
-139.995
  0
LINE
  8
0
 10
-21.7421
 20
-139.995
 11
-21.48
 21
-139.578
  0
LINE
  8
0
 10
-21.48
 20
-139.578
 11
-21.1317
 21
-139.23
  0
LINE
  8
0
 10
-21.1317
 20
-139.23
 11
-20.7145
 21
-138.968
  0
LINE
  8
0
 10
-20.7145
 20
-138.968
 11
-20.2495
 21
-138.805
  0
LINE
  8
0
 10
-20.2495
 20
-138.805
 11
-19.76
 21
-138.75
  0
LINE
  8
0
 10
-19.76
 20
-138.75
 11
-19.2705
 21
-138.805
  0
LINE
  8
0
 10
-19.2705
 20
-138.805
 11
-18.8055
 21
-138.968
  0
LINE
  8
0
 10
-18.8055
 20
-138.968
 11
-18.3883
 21
-139.23
  0
LINE
  8
0
 10
-18.3883
 20
-139.23
 11
-18.04
 21
-139.578
  0
LINE
  8
0
 10
-18.04
 20
-139.578
 11
-17.7779
 21
-139.995
  0
LINE
  8
0
 10
-17.7779
 20
-139.995
 11
-17.6152
 21
-140.46
  0
LINE
  8
0
 10
-17.6152
 20
-140.46
 11
-17.56
 21
-140.95
  0
LINE
  8
0
 10
-17.56
 20
-140.95
 11
-17.6152
 21
-141.44
  0
LINE
  8
0
 10
-17.6152
 20
-141.44
 11
-17.7779
 21
-141.905
  0
LINE
  8
0
 10
-17.7779
 20
-141.905
 11
-18.04
 21
-142.322
  0
LINE
  8
0
 10
-18.04
 20
-142.322
 11
-18.3883
 21
-142.67
  0
LINE
  8
0
 10
-18.3883
 20
-142.67
 11
-18.8055
 21
-142.932
  0
LINE
  8
0
 10
-18.8055
 20
-142.932
 11
-19.2705
 21
-143.095
  0
LINE
  8
0
 10
-19.2705
 20
-143.095
 11
-19.76
 21
-143.15
  0
LINE
  8
0
 10
-19.76
 20
-143.15
 11
-20.2495
 21
-143.095
  0
LINE
  8
0
 10
-20.2495
 20
-143.095
 11
-20.7145
 21
-142.932
  0
LINE
  8
0
 10
-20.7145
 20
-142.932
 11
-21.1317
 21
-142.67
  0
LINE
  8
0
 10
-21.1317
 20
-142.67
 11
-21.48
 21
-142.322
  0
LINE
  8
0
 10
-21.48
 20
-142.322
 11
-21.7421
 21
-141.905
  0
LINE
  8
0
 10
-21.7421
 20
-141.905
 11
-21.9048
 21
-141.44
  0
LINE
  8
0
 10
-21.9048
 20
-141.44
 11
-21.96
 21
-140.95
  0
LINE
  8
0
 10
8.04
 20
-202.05
 11
8.09516
 21
-201.56
  0
LINE
  8
0
 10
8.09516
 20
-201.56
 11
8.25787
 21
-201.095
  0
LINE
  8
0
 10
8.25787
 20
-201.095
 11
8.51997
 21
-200.678
  0
LINE
  8
0
 10
8.51997
 20
-200.678
 11
8.86832
 21
-200.33
  0
LINE
  8
0
 10
8.86832
 20
-200.33
 11
9.28545
 21
-200.068
  0
LINE
  8
0
 10
9.28545
 20
-200.068
 11
9.75045
 21
-199.905
  0
LINE
  8
0
 10
9.75045
 20
-199.905
 11
10.24
 21
-199.85
  0
LINE
  8
0
 10
10.24
 20
-199.85
 11
10.7295
 21
-199.905
  0
LINE
  8
0
 10
10.7295
 20
-199.905
 11
11.1945
 21
-200.068
  0
LINE
  8
0
 10
11.1945
 20
-200.068
 11
11.6117
 21
-200.33
  0
LINE
  8
0
 10
11.6117
 20
-200.33
 11
11.96
 21
-200.678
  0
LINE
  8
0
 10
11.96
 20
-200.678
 11
12.2221
 21
-201.095
  0
LINE
  8
0
 10
12.2221
 20
-201.095
 11
12.3848
 21
-201.56
  0
LINE
  8
0
 10
12.3848
 20
-201.56
 11
12.44
 21
-202.05
  0
LINE
  8
0
 10
12.44
 20
-202.05
 11
12.3848
 21
-202.54
  0
LINE
  8
0
 10
12.3848
 20
-202.54
 11
12.2221
 21
-203.005
  0
LINE
  8
0
 10
12.2221
 20
-203.005
 11
11.96
 21
-203.422
  0
LINE
  8
0
 10
11.96
 20
-203.422
 11
11.6117
 21
-203.77
  0
LINE
  8
0
 10
11.6117
 20
-203.77
 11
11.1945
 21
-204.032
  0
LINE
  8
0
 10
11.1945
 20
-204.032
 11
10.7295
 21
-204.195
  0
LINE
  8
0
 10
10.7295
 20
-204.195
 11
10.24
 21
-204.25
  0
LINE
  8
0
 10
10.24
 20
-204.25
 11
9.75045
 21
-204.195
  0
LINE
  8
0
 10
9.75045
 20
-204.195
 11
9.28545
 21
-204.032
  0
LINE
  8
0
 10
9.28545
 20
-204.032
 11
8.86832
 21
-203.77
  0
LINE
  8
0
 10
8.86832
 20
-203.77
 11
8.51997
 21
-203.422
  0
LINE
  8
0
 10
8.51997
 20
-203.422
 11
8.25787
 21
-203.005
  0
LINE
  8
0
 10
8.25787
 20
-203.005
 11
8.09516
 21
-202.54
  0
LINE
  8
0
 10
8.09516
 20
-202.54
 11
8.04
 21
-202.05
  0
LINE
  8
0
 10
8.04
 20
-140.95
 11
8.09516
 21
-140.46
  0
LINE
  8
0
 10
8.09516
 20
-140.46
 11
8.25787
 21
-139.995
  0
LINE
  8
0
 10
8.25787
 20
-139.995
 11
8.51997
 21
-139.578
  0
LINE
  8
0
 10
8.51997
 20
-139.578
 11
8.86832
 21
-139.23
  0
LINE
  8
0
 10
8.86832
 20
-139.23
 11
9.28545
 21
-138.968
  0
LINE
  8
0
 10
9.28545
 20
-138.968
 11
9.75045
 21
-138.805
  0
LINE
  8
0
 10
9.75045
 20
-138.805
 11
10.24
 21
-138.75
  0
LINE
  8
0
 10
10.24
 20
-138.75
 11
10.7295
 21
-138.805
  0
LINE
  8
0
 10
10.7295
 20
-138.805
 11
11.1945
 21
-138.968
  0
LINE
  8
0
 10
11.1945
 20
-138.968
 11
11.6117
 21
-139.23
  0
LINE
  8
0
 10
11.6117
 20
-139.23
 11
11.96
 21
-139.578
  0
LINE
  8
0
 10
11.96
 20
-139.578
 11
12.2221
 21
-139.995
  0
LINE
  8
0
 10
12.2221
 20
-139.995
 11
12.3848
 21
-140.46
  0
LINE
  8
0
 10
12.3848
 20
-140.46
 11
12.44
 21
-140.95
  0
LINE
  8
0
 10
12.44
 20
-140.95
 11
12.3848
 21
-141.44
  0
LINE
  8
0
 10
12.3848
 20
-141.44
 11
12.2221
 21
-141.905
  0
LINE
  8
0
 10
12.2221
 20
-141.905
 11
11.96
 21
-142.322
  0
LINE
  8
0
 10
11.96
 20
-142.322
 11
11.6117
 21
-142.67
  0
LINE
  8
0
 10
11.6117
 20
-142.67
 11
11.1945
 21
-142.932
  0
LINE
  8
0
 10
11.1945
 20
-142.932
 11
10.7295
 21
-143.095
  0
LINE
  8
0
 10
10.7295
 20
-143.095
 11
10.24
 21
-143.15
  0
LINE
  8
0
 10
10.24
 20
-143.15
 11
9.75045
 21
-143.095
  0
LINE
  8
0
 10
9.75045
 20
-143.095
 11
9.28545
 21
-142.932
  0
LINE
  8
0
 10
9.28545
 20
-142.932
 11
8.86832
 21
-142.67
  0
LINE
  8
0
 10
8.86832
 20
-142.67
 11
8.51997
 21
-142.322
  0
LINE
  8
0
 10
8.51997
 20
-142.322
 11
8.25787
 21
-141.905
  0
LINE
  8
0
 10
8.25787
 20
-141.905
 11
8.09516
 21
-141.44
  0
LINE
  8
0
 10
8.09516
 20
-141.44
 11
8.04
 21
-140.95
  0
LINE
  8
0
 10
12.26
 20
98
 11
12.3152
 21
98.4895
  0
LINE
  8
0
 10
12.3152
 20
98.4895
 11
12.4779
 21
98.9545
  0
LINE
  8
0
 10
12.4779
 20
98.9545
 11
12.74
 21
99.3717
  0
LINE
  8
0
 10
12.74
 20
99.3717
 11
13.0883
 21
99.72
  0
LINE
  8
0
 10
13.0883
 20
99.72
 11
13.5055
 21
99.9821
  0
LINE
  8
0
 10
13.5055
 20
99.9821
 11
13.9705
 21
100.145
  0
LINE
  8
0
 10
13.9705
 20
100.145
 11
14.46
 21
100.2
  0
LINE
  8
0
 10
14.46
 20
100.2
 11
14.9495
 21
100.145
  0
LINE
  8
0
 10
14.9495
 20
100.145
 11
15.4145
 21
99.9821
  0
LINE
  8
0
 10
15.4145
 20
99.9821
 11
15.8317
 21
99.72
  0
LINE
  8
0
 10
15.8317
 20
99.72
 11
16.18
 21
99.3717
  0
LINE
  8
0
 10
16.18
 20
99.3717
 11
16.4421
 21
98.9545
  0
LINE
  8
0
 10
16.4421
 20
98.9545
 11
16.6048
 21
98.4895
  0
LINE
  8
0
 10
16.6048
 20
98.4895
 11
16.66
 21
98
  0
LINE
  8
0
 10
16.66
 20
98
 11
16.6048
 21
97.5105
  0
LINE
  8
0
 10
16.6048
 20
97.5105
 11
16.4421
 21
97.0455
  0
LINE
  8
0
 10
16.4421
 20
97.0455
 11
16.18
 21
96.6283
  0
LINE
  8
0
 10
16.18
 20
96.6283
 11
15.8317
 21
96.28
  0
LINE
  8
0
 10
15.8317
 20
96.28
 11
15.4145
 21
96.0179
  0
LINE
  8
0
 10
15.4145
 20
96.0179
 11
14.9495
 21
95.8552
  0
LINE
  8
0
 10
14.9495
 20
95.8552
 11
14.46
 21
95.8
  0
LINE
  8
0
 10
14.46
 20
95.8
 11
13.9705
 21
95.8552
  0
LINE
  8
0
 10
13.9705
 20
95.8552
 11
13.5055
 21
96.0179
  0
LINE
  8
0
 10
13.5055
 20
96.0179
 11
13.0883
 21
96.28
  0
LINE
  8
0
 10
13.0883
 20
96.28
 11
12.74
 21
96.6283
  0
LINE
  8
0
 10
12.74
 20
96.6283
 11
12.4779
 21
97.0455
  0
LINE
  8
0
 10
12.4779
 20
97.0455
 11
12.3152
 21
97.5105
  0
LINE
  8
0
 10
12.3152
 20
97.5105
 11
12.26
 21
98
  0
LINE
  8
0
 10
16.0051
 20
130.376
 11
16.0459
 21
130.868
  0
LINE
  8
0
 10
16.0459
 20
130.868
 11
16.2443
 21
131.32
  0
LINE
  8
0
 10
16.2443
 20
131.32
 11
16.5787
 21
131.684
  0
LINE
  8
0
 10
16.5787
 20
131.684
 11
17.013
 21
131.919
  0
LINE
  8
0
 10
17.013
 20
131.919
 11
17.5
 21
132
  0
LINE
  8
0
 10
17.5
 20
132
 11
17.9871
 21
131.919
  0
LINE
  8
0
 10
17.9871
 20
131.919
 11
18.4213
 21
131.684
  0
LINE
  8
0
 10
18.4213
 20
131.684
 11
18.7558
 21
131.32
  0
LINE
  8
0
 10
18.7558
 20
131.32
 11
18.9541
 21
130.868
  0
LINE
  8
0
 10
18.9541
 20
130.868
 11
18.9949
 21
130.376
  0
LINE
  8
0
 10
18.9949
 20
130.376
 11
18.8737
 21
129.897
  0
LINE
  8
0
 10
18.8737
 20
129.897
 11
18.6036
 21
129.484
  0
LINE
  8
0
 10
18.6036
 20
129.484
 11
18.2139
 21
129.181
  0
LINE
  8
0
 10
18.2139
 20
129.181
 11
17.7469
 21
129.02
  0
LINE
  8
0
 10
17.7469
 20
129.02
 11
17.2531
 21
129.02
  0
LINE
  8
0
 10
17.2531
 20
129.02
 11
16.7861
 21
129.181
  0
LINE
  8
0
 10
16.7861
 20
129.181
 11
16.3964
 21
129.484
  0
LINE
  8
0
 10
16.3964
 20
129.484
 11
16.1263
 21
129.897
  0
LINE
  8
0
 10
16.1263
 20
129.897
 11
16.0051
 21
130.376
  0
LINE
  8
0
 10
16.0051
 20
136.176
 11
16.0459
 21
136.668
  0
LINE
  8
0
 10
16.0459
 20
136.668
 11
16.2443
 21
137.12
  0
LINE
  8
0
 10
16.2443
 20
137.12
 11
16.5787
 21
137.484
  0
LINE
  8
0
 10
16.5787
 20
137.484
 11
17.013
 21
137.719
  0
LINE
  8
0
 10
17.013
 20
137.719
 11
17.5
 21
137.8
  0
LINE
  8
0
 10
17.5
 20
137.8
 11
17.9871
 21
137.719
  0
LINE
  8
0
 10
17.9871
 20
137.719
 11
18.4213
 21
137.484
  0
LINE
  8
0
 10
18.4213
 20
137.484
 11
18.7558
 21
137.12
  0
LINE
  8
0
 10
18.7558
 20
137.12
 11
18.9541
 21
136.668
  0
LINE
  8
0
 10
18.9541
 20
136.668
 11
18.9949
 21
136.176
  0
LINE
  8
0
 10
18.9949
 20
136.176
 11
18.8737
 21
135.697
  0
LINE
  8
0
 10
18.8737
 20
135.697
 11
18.6036
 21
135.284
  0
LINE
  8
0
 10
18.6036
 20
135.284
 11
18.2139
 21
134.981
  0
LINE
  8
0
 10
18.2139
 20
134.981
 11
17.7469
 21
134.82
  0
LINE
  8
0
 10
17.7469
 20
134.82
 11
17.2531
 21
134.82
  0
LINE
  8
0
 10
17.2531
 20
134.82
 11
16.7861
 21
134.981
  0
LINE
  8
0
 10
16.7861
 20
134.981
 11
16.3964
 21
135.284
  0
LINE
  8
0
 10
16.3964
 20
135.284
 11
16.1263
 21
135.697
  0
LINE
  8
0
 10
16.1263
 20
135.697
 11
16.0051
 21
136.176
  0
LINE
  8
0
 10
17.24
 20
-171.5
 11
17.288
 21
-171.012
  0
LINE
  8
0
 10
17.288
 20
-171.012
 11
17.4303
 21
-170.543
  0
LINE
  8
0
 10
17.4303
 20
-170.543
 11
17.6613
 21
-170.111
  0
LINE
  8
0
 10
17.6613
 20
-170.111
 11
17.9722
 21
-169.732
  0
LINE
  8
0
 10
17.9722
 20
-169.732
 11
18.3511
 21
-169.421
  0
LINE
  8
0
 10
18.3511
 20
-169.421
 11
18.7833
 21
-169.19
  0
LINE
  8
0
 10
18.7833
 20
-169.19
 11
19.2523
 21
-169.048
  0
LINE
  8
0
 10
19.2523
 20
-169.048
 11
19.74
 21
-169
  0
LINE
  8
0
 10
19.74
 20
-169
 11
20.2277
 21
-169.048
  0
LINE
  8
0
 10
20.2277
 20
-169.048
 11
20.6967
 21
-169.19
  0
LINE
  8
0
 10
20.6967
 20
-169.19
 11
21.1289
 21
-169.421
  0
LINE
  8
0
 10
21.1289
 20
-169.421
 11
21.5078
 21
-169.732
  0
LINE
  8
0
 10
21.5078
 20
-169.732
 11
21.8187
 21
-170.111
  0
LINE
  8
0
 10
21.8187
 20
-170.111
 11
22.0497
 21
-170.543
  0
LINE
  8
0
 10
22.0497
 20
-170.543
 11
22.192
 21
-171.012
  0
LINE
  8
0
 10
22.192
 20
-171.012
 11
22.24
 21
-171.5
  0
LINE
  8
0
 10
22.24
 20
-171.5
 11
22.192
 21
-171.988
  0
LINE
  8
0
 10
22.192
 20
-171.988
 11
22.0497
 21
-172.457
  0
LINE
  8
0
 10
22.0497
 20
-172.457
 11
21.8187
 21
-172.889
  0
LINE
  8
0
 10
21.8187
 20
-172.889
 11
21.5078
 21
-173.268
  0
LINE
  8
0
 10
21.5078
 20
-173.268
 11
21.1289
 21
-173.579
  0
LINE
  8
0
 10
21.1289
 20
-173.579
 11
20.6967
 21
-173.81
  0
LINE
  8
0
 10
20.6967
 20
-173.81
 11
20.2277
 21
-173.952
  0
LINE
  8
0
 10
20.2277
 20
-173.952
 11
19.74
 21
-174
  0
LINE
  8
0
 10
19.74
 20
-174
 11
19.2523
 21
-173.952
  0
LINE
  8
0
 10
19.2523
 20
-173.952
 11
18.7833
 21
-173.81
  0
LINE
  8
0
 10
18.7833
 20
-173.81
 11
18.3511
 21
-173.579
  0
LINE
  8
0
 10
18.3511
 20
-173.579
 11
17.9722
 21
-173.268
  0
LINE
  8
0
 10
17.9722
 20
-173.268
 11
17.6613
 21
-172.889
  0
LINE
  8
0
 10
17.6613
 20
-172.889
 11
17.4303
 21
-172.457
  0
LINE
  8
0
 10
17.4303
 20
-172.457
 11
17.288
 21
-171.988
  0
LINE
  8
0
 10
17.288
 20
-171.988
 11
17.24
 21
-171.5
  0
LINE
  8
0
 10
21.0051
 20
141.824
 11
21.1263
 21
142.303
  0
LINE
  8
0
 10
21.1263
 20
142.303
 11
21.3964
 21
142.716
  0
LINE
  8
0
 10
21.3964
 20
142.716
 11
21.7861
 21
143.019
  0
LINE
  8
0
 10
21.7861
 20
143.019
 11
22.2531
 21
143.18
  0
LINE
  8
0
 10
22.2531
 20
143.18
 11
22.7469
 21
143.18
  0
LINE
  8
0
 10
22.7469
 20
143.18
 11
23.2139
 21
143.019
  0
LINE
  8
0
 10
23.2139
 20
143.019
 11
23.6036
 21
142.716
  0
LINE
  8
0
 10
23.6036
 20
142.716
 11
23.8737
 21
142.303
  0
LINE
  8
0
 10
23.8737
 20
142.303
 11
23.9949
 21
141.824
  0
LINE
  8
0
 10
23.9949
 20
141.824
 11
23.9541
 21
141.332
  0
LINE
  8
0
 10
23.9541
 20
141.332
 11
23.7557
 21
140.88
  0
LINE
  8
0
 10
23.7557
 20
140.88
 11
23.4213
 21
140.516
  0
LINE
  8
0
 10
23.4213
 20
140.516
 11
22.987
 21
140.281
  0
LINE
  8
0
 10
22.987
 20
140.281
 11
22.5
 21
140.2
  0
LINE
  8
0
 10
22.5
 20
140.2
 11
22.0129
 21
140.281
  0
LINE
  8
0
 10
22.0129
 20
140.281
 11
21.5787
 21
140.516
  0
LINE
  8
0
 10
21.5787
 20
140.516
 11
21.2442
 21
140.88
  0
LINE
  8
0
 10
21.2442
 20
140.88
 11
21.0459
 21
141.332
  0
LINE
  8
0
 10
21.0459
 20
141.332
 11
21.0051
 21
141.824
  0
LINE
  8
0
 10
21.0051
 20
150.424
 11
21.1263
 21
150.903
  0
LINE
  8
0
 10
21.1263
 20
150.903
 11
21.3964
 21
151.316
  0
LINE
  8
0
 10
21.3964
 20
151.316
 11
21.7861
 21
151.619
  0
LINE
  8
0
 10
21.7861
 20
151.619
 11
22.2531
 21
151.78
  0
LINE
  8
0
 10
22.2531
 20
151.78
 11
22.7469
 21
151.78
  0
LINE
  8
0
 10
22.7469
 20
151.78
 11
23.2139
 21
151.619
  0
LINE
  8
0
 10
23.2139
 20
151.619
 11
23.6036
 21
151.316
  0
LINE
  8
0
 10
23.6036
 20
151.316
 11
23.8737
 21
150.903
  0
LINE
  8
0
 10
23.8737
 20
150.903
 11
23.9949
 21
150.424
  0
LINE
  8
0
 10
23.9949
 20
150.424
 11
23.9541
 21
149.932
  0
LINE
  8
0
 10
23.9541
 20
149.932
 11
23.7557
 21
149.48
  0
LINE
  8
0
 10
23.7557
 20
149.48
 11
23.4213
 21
149.116
  0
LINE
  8
0
 10
23.4213
 20
149.116
 11
22.987
 21
148.881
  0
LINE
  8
0
 10
22.987
 20
148.881
 11
22.5
 21
148.8
  0
LINE
  8
0
 10
22.5
 20
148.8
 11
22.0129
 21
148.881
  0
LINE
  8
0
 10
22.0129
 20
148.881
 11
21.5787
 21
149.116
  0
LINE
  8
0
 10
21.5787
 20
149.116
 11
21.2442
 21
149.48
  0
LINE
  8
0
 10
21.2442
 20
149.48
 11
21.0459
 21
149.932
  0
LINE
  8
0
 10
21.0459
 20
149.932
 11
21.0051
 21
150.424
  0
LINE
  8
0
 10
60.5
 20
-134
 11
60.5552
 21
-133.51
  0
LINE
  8
0
 10
60.5552
 20
-133.51
 11
60.7179
 21
-133.045
  0
LINE
  8
0
 10
60.7179
 20
-133.045
 11
60.98
 21
-132.628
  0
LINE
  8
0
 10
60.98
 20
-132.628
 11
61.3283
 21
-132.28
  0
LINE
  8
0
 10
61.3283
 20
-132.28
 11
61.7455
 21
-132.018
  0
LINE
  8
0
 10
61.7455
 20
-132.018
 11
62.2105
 21
-131.855
  0
LINE
  8
0
 10
62.2105
 20
-131.855
 11
62.7
 21
-131.8
  0
LINE
  8
0
 10
62.7
 20
-131.8
 11
63.1895
 21
-131.855
  0
LINE
  8
0
 10
63.1895
 20
-131.855
 11
63.6545
 21
-132.018
  0
LINE
  8
0
 10
63.6545
 20
-132.018
 11
64.0717
 21
-132.28
  0
LINE
  8
0
 10
64.0717
 20
-132.28
 11
64.42
 21
-132.628
  0
LINE
  8
0
 10
64.42
 20
-132.628
 11
64.6821
 21
-133.045
  0
LINE
  8
0
 10
64.6821
 20
-133.045
 11
64.8448
 21
-133.51
  0
LINE
  8
0
 10
64.8448
 20
-133.51
 11
64.9
 21
-134
  0
LINE
  8
0
 10
64.9
 20
-134
 11
64.8448
 21
-134.49
  0
LINE
  8
0
 10
64.8448
 20
-134.49
 11
64.6821
 21
-134.955
  0
LINE
  8
0
 10
64.6821
 20
-134.955
 11
64.42
 21
-135.372
  0
LINE
  8
0
 10
64.42
 20
-135.372
 11
64.0717
 21
-135.72
  0
LINE
  8
0
 10
64.0717
 20
-135.72
 11
63.6545
 21
-135.982
  0
LINE
  8
0
 10
63.6545
 20
-135.982
 11
63.1895
 21
-136.145
  0
LINE
  8
0
 10
63.1895
 20
-136.145
 11
62.7
 21
-136.2
  0
LINE
  8
0
 10
62.7
 20
-136.2
 11
62.2105
 21
-136.145
  0
LINE
  8
0
 10
62.2105
 20
-136.145
 11
61.7455
 21
-135.982
  0
LINE
  8
0
 10
61.7455
 20
-135.982
 11
61.3283
 21
-135.72
  0
LINE
  8
0
 10
61.3283
 20
-135.72
 11
60.98
 21
-135.372
  0
LINE
  8
0
 10
60.98
 20
-135.372
 11
60.7179
 21
-134.955
  0
LINE
  8
0
 10
60.7179
 20
-134.955
 11
60.5552
 21
-134.49
  0
LINE
  8
0
 10
60.5552
 20
-134.49
 11
60.5
 21
-134
  0
LINE
  8
0
 10
60.5
 20
123
 11
60.5552
 21
123.49
  0
LINE
  8
0
 10
60.5552
 20
123.49
 11
60.7179
 21
123.955
  0
LINE
  8
0
 10
60.7179
 20
123.955
 11
60.98
 21
124.372
  0
LINE
  8
0
 10
60.98
 20
124.372
 11
61.3283
 21
124.72
  0
LINE
  8
0
 10
61.3283
 20
124.72
 11
61.7455
 21
124.982
  0
LINE
  8
0
 10
61.7455
 20
124.982
 11
62.2105
 21
125.145
  0
LINE
  8
0
 10
62.2105
 20
125.145
 11
62.7
 21
125.2
  0
LINE
  8
0
 10
62.7
 20
125.2
 11
63.1895
 21
125.145
  0
LINE
  8
0
 10
63.1895
 20
125.145
 11
63.6545
 21
124.982
  0
LINE
  8
0
 10
63.6545
 20
124.982
 11
64.0717
 21
124.72
  0
LINE
  8
0
 10
64.0717
 20
124.72
 11
64.42
 21
124.372
  0
LINE
  8
0
 10
64.42
 20
124.372
 11
64.6821
 21
123.955
  0
LINE
  8
0
 10
64.6821
 20
123.955
 11
64.8448
 21
123.49
  0
LINE
  8
0
 10
64.8448
 20
123.49
 11
64.9
 21
123
  0
LINE
  8
0
 10
64.9
 20
123
 11
64.8448
 21
122.51
  0
LINE
  8
0
 10
64.8448
 20
122.51
 11
64.6821
 21
122.045
  0
LINE
  8
0
 10
64.6821
 20
122.045
 11
64.42
 21
121.628
  0
LINE
  8
0
 10
64.42
 20
121.628
 11
64.0717
 21
121.28
  0
LINE
  8
0
 10
64.0717
 20
121.28
 11
63.6545
 21
121.018
  0
LINE
  8
0
 10
63.6545
 20
121.018
 11
63.1895
 21
120.855
  0
LINE
  8
0
 10
63.1895
 20
120.855
 11
62.7
 21
120.8
  0
LINE
  8
0
 10
62.7
 20
120.8
 11
62.2105
 21
120.855
  0
LINE
  8
0
 10
62.2105
 20
120.855
 11
61.7455
 21
121.018
  0
LINE
  8
0
 10
61.7455
 20
121.018
 11
61.3283
 21
121.28
  0
LINE
  8
0
 10
61.3283
 20
121.28
 11
60.98
 21
121.628
  0
LINE
  8
0
 10
60.98
 20
121.628
 11
60.7179
 21
122.045
  0
LINE
  8
0
 10
60.7179
 20
122.045
 11
60.5552
 21
122.51
  0
LINE
  8
0
 10
60.5552
 20
122.51
 11
60.5
 21
123
  0
LINE
  8
0
 10
90.6
 20
-134
 11
90.6552
 21
-133.51
  0
LINE
  8
0
 10
90.6552
 20
-133.51
 11
90.8179
 21
-133.045
  0
LINE
  8
0
 10
90.8179
 20
-133.045
 11
91.08
 21
-132.628
  0
LINE
  8
0
 10
91.08
 20
-132.628
 11
91.4283
 21
-132.28
  0
LINE
  8
0
 10
91.4283
 20
-132.28
 11
91.8455
 21
-132.018
  0
LINE
  8
0
 10
91.8455
 20
-132.018
 11
92.3105
 21
-131.855
  0
LINE
  8
0
 10
92.3105
 20
-131.855
 11
92.8
 21
-131.8
  0
LINE
  8
0
 10
92.8
 20
-131.8
 11
93.2895
 21
-131.855
  0
LINE
  8
0
 10
93.2895
 20
-131.855
 11
93.7545
 21
-132.018
  0
LINE
  8
0
 10
93.7545
 20
-132.018
 11
94.1717
 21
-132.28
  0
LINE
  8
0
 10
94.1717
 20
-132.28
 11
94.52
 21
-132.628
  0
LINE
  8
0
 10
94.52
 20
-132.628
 11
94.7821
 21
-133.045
  0
LINE
  8
0
 10
94.7821
 20
-133.045
 11
94.9448
 21
-133.51
  0
LINE
  8
0
 10
94.9448
 20
-133.51
 11
95
 21
-134
  0
LINE
  8
0
 10
95
 20
-134
 11
94.9448
 21
-134.49
  0
LINE
  8
0
 10
94.9448
 20
-134.49
 11
94.7821
 21
-134.955
  0
LINE
  8
0
 10
94.7821
 20
-134.955
 11
94.52
 21
-135.372
  0
LINE
  8
0
 10
94.52
 20
-135.372
 11
94.1717
 21
-135.72
  0
LINE
  8
0
 10
94.1717
 20
-135.72
 11
93.7545
 21
-135.982
  0
LINE
  8
0
 10
93.7545
 20
-135.982
 11
93.2895
 21
-136.145
  0
LINE
  8
0
 10
93.2895
 20
-136.145
 11
92.8
 21
-136.2
  0
LINE
  8
0
 10
92.8
 20
-136.2
 11
92.3105
 21
-136.145
  0
LINE
  8
0
 10
92.3105
 20
-136.145
 11
91.8455
 21
-135.982
  0
LINE
  8
0
 10
91.8455
 20
-135.982
 11
91.4283
 21
-135.72
  0
LINE
  8
0
 10
91.4283
 20
-135.72
 11
91.08
 21
-135.372
  0
LINE
  8
0
 10
91.08
 20
-135.372
 11
90.8179
 21
-134.955
  0
LINE
  8
0
 10
90.8179
 20
-134.955
 11
90.6552
 21
-134.49
  0
LINE
  8
0
 10
90.6552
 20
-134.49
 11
90.6
 21
-134
  0
LINE
  8
0
 10
90.6
 20
123
 11
90.6552
 21
123.49
  0
LINE
  8
0
 10
90.6552
 20
123.49
 11
90.8179
 21
123.955
  0
LINE
  8
0
 10
90.8179
 20
123.955
 11
91.08
 21
124.372
  0
LINE
  8
0
 10
91.08
 20
124.372
 11
91.4283
 21
124.72
  0
LINE
  8
0
 10
91.4283
 20
124.72
 11
91.8455
 21
124.982
  0
LINE
  8
0
 10
91.8455
 20
124.982
 11
92.3105
 21
125.145
  0
LINE
  8
0
 10
92.3105
 20
125.145
 11
92.8
 21
125.2
  0
LINE
  8
0
 10
92.8
 20
125.2
 11
93.2895
 21
125.145
  0
LINE
  8
0
 10
93.2895
 20
125.145
 11
93.7545
 21
124.982
  0
LINE
  8
0
 10
93.7545
 20
124.982
 11
94.1717
 21
124.72
  0
LINE
  8
0
 10
94.1717
 20
124.72
 11
94.52
 21
124.372
  0
LINE
  8
0
 10
94.52
 20
124.372
 11
94.7821
 21
123.955
  0
LINE
  8
0
 10
94.7821
 20
123.955
 11
94.9448
 21
123.49
  0
LINE
  8
0
 10
94.9448
 20
123.49
 11
95
 21
123
  0
LINE
  8
0
 10
95
 20
123
 11
94.9448
 21
122.51
  0
LINE
  8
0
 10
94.9448
 20
122.51
 11
94.7821
 21
122.045
  0
LINE
  8
0
 10
94.7821
 20
122.045
 11
94.52
 21
121.628
  0
LINE
  8
0
 10
94.52
 20
121.628
 11
94.1717
 21
121.28
  0
LINE
  8
0
 10
94.1717
 20
121.28
 11
93.7545
 21
121.018
  0
LINE
  8
0
 10
93.7545
 20
121.018
 11
93.2895
 21
120.855
  0
LINE
  8
0
 10
93.2895
 20
120.855
 11
92.8
 21
120.8
  0
LINE
  8
0
 10
92.8
 20
120.8
 11
92.3105
 21
120.855
  0
LINE
  8
0
 10
92.3105
 20
120.855
 11
91.8455
 21
121.018
  0
LINE
  8
0
 10
91.8455
 20
121.018
 11
91.4283
 21
121.28
  0
LINE
  8
0
 10
91.4283
 20
121.28
 11
91.08
 21
121.628
  0
LINE
  8
0
 10
91.08
 20
121.628
 11
90.8179
 21
122.045
  0
LINE
  8
0
 10
90.8179
 20
122.045
 11
90.6552
 21
122.51
  0
LINE
  8
0
 10
90.6552
 20
122.51
 11
90.6
 21
123
  0
LINE
  8
0
 10
92.25
 20
-120
 11
92.3081
 21
-119.521
  0
LINE
  8
0
 10
92.3081
 20
-119.521
 11
92.4791
 21
-119.071
  0
LINE
  8
0
 10
92.4791
 20
-119.071
 11
92.753
 21
-118.674
  0
LINE
  8
0
 10
92.753
 20
-118.674
 11
93.1139
 21
-118.354
  0
LINE
  8
0
 10
93.1139
 20
-118.354
 11
93.5408
 21
-118.13
  0
LINE
  8
0
 10
93.5408
 20
-118.13
 11
94.0089
 21
-118.015
  0
LINE
  8
0
 10
94.0089
 20
-118.015
 11
94.4911
 21
-118.015
  0
LINE
  8
0
 10
94.4911
 20
-118.015
 11
94.9592
 21
-118.13
  0
LINE
  8
0
 10
94.9592
 20
-118.13
 11
95.3861
 21
-118.354
  0
LINE
  8
0
 10
95.3861
 20
-118.354
 11
95.747
 21
-118.674
  0
LINE
  8
0
 10
95.747
 20
-118.674
 11
96.0209
 21
-119.071
  0
LINE
  8
0
 10
96.0209
 20
-119.071
 11
96.1919
 21
-119.521
  0
LINE
  8
0
 10
96.1919
 20
-119.521
 11
96.25
 21
-120
  0
LINE
  8
0
 10
96.25
 20
-120
 11
96.1919
 21
-120.479
  0
LINE
  8
0
 10
96.1919
 20
-120.479
 11
96.0209
 21
-120.929
  0
LINE
  8
0
 10
96.0209
 20
-120.929
 11
95.747
 21
-121.326
  0
LINE
  8
0
 10
95.747
 20
-121.326
 11
95.3861
 21
-121.646
  0
LINE
  8
0
 10
95.3861
 20
-121.646
 11
94.9592
 21
-121.87
  0
LINE
  8
0
 10
94.9592
 20
-121.87
 11
94.4911
 21
-121.985
  0
LINE
  8
0
 10
94.4911
 20
-121.985
 11
94.0089
 21
-121.985
  0
LINE
  8
0
 10
94.0089
 20
-121.985
 11
93.5408
 21
-121.87
  0
LINE
  8
0
 10
93.5408
 20
-121.87
 11
93.1139
 21
-121.646
  0
LINE
  8
0
 10
93.1139
 20
-121.646
 11
92.753
 21
-121.326
  0
LINE
  8
0
 10
92.753
 20
-121.326
 11
92.4791
 21
-120.929
  0
LINE
  8
0
 10
92.4791
 20
-120.929
 11
92.3081
 21
-120.479
  0
LINE
  8
0
 10
92.3081
 20
-120.479
 11
92.25
 21
-120
  0
LINE
  8
0
 10
99.2705
 20
-112.747
 11
99.2705
 21
-112.253
  0
LINE
  8
0
 10
99.2705
 20
-112.253
 11
99.4308
 21
-111.786
  0
LINE
  8
0
 10
99.4308
 20
-111.786
 11
99.7341
 21
-111.396
  0
LINE
  8
0
 10
99.7341
 20
-111.396
 11
100.147
 21
-111.126
  0
LINE
  8
0
 10
100.147
 20
-111.126
 11
100.626
 21
-111.005
  0
LINE
  8
0
 10
100.626
 20
-111.005
 11
101.118
 21
-111.046
  0
LINE
  8
0
 10
101.118
 20
-111.046
 11
101.57
 21
-111.244
  0
LINE
  8
0
 10
101.57
 20
-111.244
 11
101.934
 21
-111.579
  0
LINE
  8
0
 10
101.934
 20
-111.579
 11
102.169
 21
-112.013
  0
LINE
  8
0
 10
102.169
 20
-112.013
 11
102.25
 21
-112.5
  0
LINE
  8
0
 10
102.25
 20
-112.5
 11
102.169
 21
-112.987
  0
LINE
  8
0
 10
102.169
 20
-112.987
 11
101.934
 21
-113.421
  0
LINE
  8
0
 10
101.934
 20
-113.421
 11
101.57
 21
-113.756
  0
LINE
  8
0
 10
101.57
 20
-113.756
 11
101.118
 21
-113.954
  0
LINE
  8
0
 10
101.118
 20
-113.954
 11
100.626
 21
-113.995
  0
LINE
  8
0
 10
100.626
 20
-113.995
 11
100.147
 21
-113.874
  0
LINE
  8
0
 10
100.147
 20
-113.874
 11
99.7341
 21
-113.604
  0
LINE
  8
0
 10
99.7341
 20
-113.604
 11
99.4308
 21
-113.214
  0
LINE
  8
0
 10
99.4308
 20
-113.214
 11
99.2705
 21
-112.747
  0
LINE
  8
0
 10
99.2705
 20
55.1531
 11
99.2705
 21
55.6469
  0
LINE
  8
0
 10
99.2705
 20
55.6469
 11
99.4308
 21
56.1139
  0
LINE
  8
0
 10
99.4308
 20
56.1139
 11
99.7341
 21
56.5036
  0
LINE
  8
0
 10
99.7341
 20
56.5036
 11
100.147
 21
56.7737
  0
LINE
  8
0
 10
100.147
 20
56.7737
 11
100.626
 21
56.8949
  0
LINE
  8
0
 10
100.626
 20
56.8949
 11
101.118
 21
56.8541
  0
LINE
  8
0
 10
101.118
 20
56.8541
 11
101.57
 21
56.6557
  0
LINE
  8
0
 10
101.57
 20
56.6557
 11
101.934
 21
56.3213
  0
LINE
  8
0
 10
101.934
 20
56.3213
 11
102.169
 21
55.887
  0
LINE
  8
0
 10
102.169
 20
55.887
 11
102.25
 21
55.4
  0
LINE
  8
0
 10
102.25
 20
55.4
 11
102.169
 21
54.9129
  0
LINE
  8
0
 10
102.169
 20
54.9129
 11
101.934
 21
54.4787
  0
LINE
  8
0
 10
101.934
 20
54.4787
 11
101.57
 21
54.1442
  0
LINE
  8
0
 10
101.57
 20
54.1442
 11
101.118
 21
53.9459
  0
LINE
  8
0
 10
101.118
 20
53.9459
 11
100.626
 21
53.9051
  0
LINE
  8
0
 10
100.626
 20
53.9051
 11
100.147
 21
54.0263
  0
LINE
  8
0
 10
100.147
 20
54.0263
 11
99.7341
 21
54.2964
  0
LINE
  8
0
 10
99.7341
 20
54.2964
 11
99.4308
 21
54.6861
  0
LINE
  8
0
 10
99.4308
 20
54.6861
 11
99.2705
 21
55.1531
  0
LINE
  8
0
 10
101.65
 20
69.9
 11
101.708
 21
70.3786
  0
LINE
  8
0
 10
101.708
 20
70.3786
 11
101.879
 21
70.8294
  0
LINE
  8
0
 10
101.879
 20
70.8294
 11
102.153
 21
71.2262
  0
LINE
  8
0
 10
102.153
 20
71.2262
 11
102.514
 21
71.546
  0
LINE
  8
0
 10
102.514
 20
71.546
 11
102.941
 21
71.77
  0
LINE
  8
0
 10
102.941
 20
71.77
 11
103.409
 21
71.8854
  0
LINE
  8
0
 10
103.409
 20
71.8854
 11
103.891
 21
71.8854
  0
LINE
  8
0
 10
103.891
 20
71.8854
 11
104.359
 21
71.77
  0
LINE
  8
0
 10
104.359
 20
71.77
 11
104.786
 21
71.546
  0
LINE
  8
0
 10
104.786
 20
71.546
 11
105.147
 21
71.2262
  0
LINE
  8
0
 10
105.147
 20
71.2262
 11
105.421
 21
70.8294
  0
LINE
  8
0
 10
105.421
 20
70.8294
 11
105.592
 21
70.3786
  0
LINE
  8
0
 10
105.592
 20
70.3786
 11
105.65
 21
69.9
  0
LINE
  8
0
 10
105.65
 20
69.9
 11
105.592
 21
69.4214
  0
LINE
  8
0
 10
105.592
 20
69.4214
 11
105.421
 21
68.9706
  0
LINE
  8
0
 10
105.421
 20
68.9706
 11
105.147
 21
68.5738
  0
LINE
  8
0
 10
105.147
 20
68.5738
 11
104.786
 21
68.254
  0
LINE
  8
0
 10
104.786
 20
68.254
 11
104.359
 21
68.03
  0
LINE
  8
0
 10
104.359
 20
68.03
 11
103.891
 21
67.9146
  0
LINE
  8
0
 10
103.891
 20
67.9146
 11
103.409
 21
67.9146
  0
LINE
  8
0
 10
103.409
 20
67.9146
 11
102.941
 21
68.03
  0
LINE
  8
0
 10
102.941
 20
68.03
 11
102.514
 21
68.254
  0
LINE
  8
0
 10
102.514
 20
68.254
 11
102.153
 21
68.5738
  0
LINE
  8
0
 10
102.153
 20
68.5738
 11
101.879
 21
68.9706
  0
LINE
  8
0
 10
101.879
 20
68.9706
 11
101.708
 21
69.4214
  0
LINE
  8
0
 10
101.708
 20
69.4214
 11
101.65
 21
69.9
  0
LINE
  8
0
 10
105.07
 20
-112.747
 11
105.07
 21
-112.253
  0
LINE
  8
0
 10
105.07
 20
-112.253
 11
105.231
 21
-111.786
  0
LINE
  8
0
 10
105.231
 20
-111.786
 11
105.534
 21
-111.396
  0
LINE
  8
0
 10
105.534
 20
-111.396
 11
105.947
 21
-111.126
  0
LINE
  8
0
 10
105.947
 20
-111.126
 11
106.426
 21
-111.005
  0
LINE
  8
0
 10
106.426
 20
-111.005
 11
106.918
 21
-111.046
  0
LINE
  8
0
 10
106.918
 20
-111.046
 11
107.37
 21
-111.244
  0
LINE
  8
0
 10
107.37
 20
-111.244
 11
107.734
 21
-111.579
  0
LINE
  8
0
 10
107.734
 20
-111.579
 11
107.969
 21
-112.013
  0
LINE
  8
0
 10
107.969
 20
-112.013
 11
108.05
 21
-112.5
  0
LINE
  8
0
 10
108.05
 20
-112.5
 11
107.969
 21
-112.987
  0
LINE
  8
0
 10
107.969
 20
-112.987
 11
107.734
 21
-113.421
  0
LINE
  8
0
 10
107.734
 20
-113.421
 11
107.37
 21
-113.756
  0
LINE
  8
0
 10
107.37
 20
-113.756
 11
106.918
 21
-113.954
  0
LINE
  8
0
 10
106.918
 20
-113.954
 11
106.426
 21
-113.995
  0
LINE
  8
0
 10
106.426
 20
-113.995
 11
105.947
 21
-113.874
  0
LINE
  8
0
 10
105.947
 20
-113.874
 11
105.534
 21
-113.604
  0
LINE
  8
0
 10
105.534
 20
-113.604
 11
105.231
 21
-113.214
  0
LINE
  8
0
 10
105.231
 20
-113.214
 11
105.07
 21
-112.747
  0
LINE
  8
0
 10
105.07
 20
55.1531
 11
105.07
 21
55.6469
  0
LINE
  8
0
 10
105.07
 20
55.6469
 11
105.231
 21
56.1139
  0
LINE
  8
0
 10
105.231
 20
56.1139
 11
105.534
 21
56.5036
  0
LINE
  8
0
 10
105.534
 20
56.5036
 11
105.947
 21
56.7737
  0
LINE
  8
0
 10
105.947
 20
56.7737
 11
106.426
 21
56.8949
  0
LINE
  8
0
 10
106.426
 20
56.8949
 11
106.918
 21
56.8541
  0
LINE
  8
0
 10
106.918
 20
56.8541
 11
107.37
 21
56.6557
  0
LINE
  8
0
 10
107.37
 20
56.6557
 11
107.734
 21
56.3213
  0
LINE
  8
0
 10
107.734
 20
56.3213
 11
107.969
 21
55.887
  0
LINE
  8
0
 10
107.969
 20
55.887
 11
108.05
 21
55.4
  0
LINE
  8
0
 10
108.05
 20
55.4
 11
107.969
 21
54.9129
  0
LINE
  8
0
 10
107.969
 20
54.9129
 11
107.734
 21
54.4787
  0
LINE
  8
0
 10
107.734
 20
54.4787
 11
107.37
 21
54.1442
  0
LINE
  8
0
 10
107.37
 20
54.1442
 11
106.918
 21
53.9459
  0
LINE
  8
0
 10
106.918
 20
53.9459
 11
106.426
 21
53.9051
  0
LINE
  8
0
 10
106.426
 20
53.9051
 11
105.947
 21
54.0263
  0
LINE
  8
0
 10
105.947
 20
54.0263
 11
105.534
 21
54.2964
  0
LINE
  8
0
 10
105.534
 20
54.2964
 11
105.231
 21
54.6861
  0
LINE
  8
0
 10
105.231
 20
54.6861
 11
105.07
 21
55.1531
  0
LINE
  8
0
 10
110.45
 20
-117.5
 11
110.531
 21
-117.013
  0
LINE
  8
0
 10
110.531
 20
-117.013
 11
110.766
 21
-116.579
  0
LINE
  8
0
 10
110.766
 20
-116.579
 11
111.13
 21
-116.244
  0
LINE
  8
0
 10
111.13
 20
-116.244
 11
111.582
 21
-116.046
  0
LINE
  8
0
 10
111.582
 20
-116.046
 11
112.074
 21
-116.005
  0
LINE
  8
0
 10
112.074
 20
-116.005
 11
112.553
 21
-116.126
  0
LINE
  8
0
 10
112.553
 20
-116.126
 11
112.966
 21
-116.396
  0
LINE
  8
0
 10
112.966
 20
-116.396
 11
113.269
 21
-116.786
  0
LINE
  8
0
 10
113.269
 20
-116.786
 11
113.43
 21
-117.253
  0
LINE
  8
0
 10
113.43
 20
-117.253
 11
113.43
 21
-117.747
  0
LINE
  8
0
 10
113.43
 20
-117.747
 11
113.269
 21
-118.214
  0
LINE
  8
0
 10
113.269
 20
-118.214
 11
112.966
 21
-118.604
  0
LINE
  8
0
 10
112.966
 20
-118.604
 11
112.553
 21
-118.874
  0
LINE
  8
0
 10
112.553
 20
-118.874
 11
112.074
 21
-118.995
  0
LINE
  8
0
 10
112.074
 20
-118.995
 11
111.582
 21
-118.954
  0
LINE
  8
0
 10
111.582
 20
-118.954
 11
111.13
 21
-118.756
  0
LINE
  8
0
 10
111.13
 20
-118.756
 11
110.766
 21
-118.421
  0
LINE
  8
0
 10
110.766
 20
-118.421
 11
110.531
 21
-117.987
  0
LINE
  8
0
 10
110.531
 20
-117.987
 11
110.45
 21
-117.5
  0
LINE
  8
0
 10
110.45
 20
50.4
 11
110.531
 21
50.8871
  0
LINE
  8
0
 10
110.531
 20
50.8871
 11
110.766
 21
51.3213
  0
LINE
  8
0
 10
110.766
 20
51.3213
 11
111.13
 21
51.6558
  0
LINE
  8
0
 10
111.13
 20
51.6558
 11
111.582
 21
51.8541
  0
LINE
  8
0
 10
111.582
 20
51.8541
 11
112.074
 21
51.8949
  0
LINE
  8
0
 10
112.074
 20
51.8949
 11
112.553
 21
51.7737
  0
LINE
  8
0
 10
112.553
 20
51.7737
 11
112.966
 21
51.5036
  0
LINE
  8
0
 10
112.966
 20
51.5036
 11
113.269
 21
51.1139
  0
LINE
  8
0
 10
113.269
 20
51.1139
 11
113.43
 21
50.6469
  0
LINE
  8
0
 10
113.43
 20
50.6469
 11
113.43
 21
50.1531
  0
LINE
  8
0
 10
113.43
 20
50.1531
 11
113.269
 21
49.6861
  0
LINE
  8
0
 10
113.269
 20
49.6861
 11
112.966
 21
49.2964
  0
LINE
  8
0
 10
112.966
 20
49.2964
 11
112.553
 21
49.0263
  0
LINE
  8
0
 10
112.553
 20
49.0263
 11
112.074
 21
48.9051
  0
LINE
  8
0
 10
112.074
 20
48.9051
 11
111.582
 21
48.9459
  0
LINE
  8
0
 10
111.582
 20
48.9459
 11
111.13
 21
49.1443
  0
LINE
  8
0
 10
111.13
 20
49.1443
 11
110.766
 21
49.4787
  0
LINE
  8
0
 10
110.766
 20
49.4787
 11
110.531
 21
49.913
  0
LINE
  8
0
 10
110.531
 20
49.913
 11
110.45
 21
50.4
  0
LINE
  8
0
 10
112.35
 20
60.4
 11
112.398
 21
60.8877
  0
LINE
  8
0
 10
112.398
 20
60.8877
 11
112.54
 21
61.3567
  0
LINE
  8
0
 10
112.54
 20
61.3567
 11
112.771
 21
61.7889
  0
LINE
  8
0
 10
112.771
 20
61.7889
 11
113.082
 21
62.1678
  0
LINE
  8
0
 10
113.082
 20
62.1678
 11
113.461
 21
62.4787
  0
LINE
  8
0
 10
113.461
 20
62.4787
 11
113.893
 21
62.7097
  0
LINE
  8
0
 10
113.893
 20
62.7097
 11
114.362
 21
62.852
  0
LINE
  8
0
 10
114.362
 20
62.852
 11
114.85
 21
62.9
  0
LINE
  8
0
 10
114.85
 20
62.9
 11
115.338
 21
62.852
  0
LINE
  8
0
 10
115.338
 20
62.852
 11
115.807
 21
62.7097
  0
LINE
  8
0
 10
115.807
 20
62.7097
 11
116.239
 21
62.4787
  0
LINE
  8
0
 10
116.239
 20
62.4787
 11
116.618
 21
62.1678
  0
LINE
  8
0
 10
116.618
 20
62.1678
 11
116.929
 21
61.7889
  0
LINE
  8
0
 10
116.929
 20
61.7889
 11
117.16
 21
61.3567
  0
LINE
  8
0
 10
117.16
 20
61.3567
 11
117.302
 21
60.8877
  0
LINE
  8
0
 10
117.302
 20
60.8877
 11
117.35
 21
60.4
  0
LINE
  8
0
 10
117.35
 20
60.4
 11
117.302
 21
59.9123
  0
LINE
  8
0
 10
117.302
 20
59.9123
 11
117.16
 21
59.4433
  0
LINE
  8
0
 10
117.16
 20
59.4433
 11
116.929
 21
59.0111
  0
LINE
  8
0
 10
116.929
 20
59.0111
 11
116.618
 21
58.6322
  0
LINE
  8
0
 10
116.618
 20
58.6322
 11
116.239
 21
58.3213
  0
LINE
  8
0
 10
116.239
 20
58.3213
 11
115.807
 21
58.0903
  0
LINE
  8
0
 10
115.807
 20
58.0903
 11
115.338
 21
57.948
  0
LINE
  8
0
 10
115.338
 20
57.948
 11
114.85
 21
57.9
  0
LINE
  8
0
 10
114.85
 20
57.9
 11
114.362
 21
57.948
  0
LINE
  8
0
 10
114.362
 20
57.948
 11
113.893
 21
58.0903
  0
LINE
  8
0
 10
113.893
 20
58.0903
 11
113.461
 21
58.3213
  0
LINE
  8
0
 10
113.461
 20
58.3213
 11
113.082
 21
58.6322
  0
LINE
  8
0
 10
113.082
 20
58.6322
 11
112.771
 21
59.0111
  0
LINE
  8
0
 10
112.771
 20
59.0111
 11
112.54
 21
59.4433
  0
LINE
  8
0
 10
112.54
 20
59.4433
 11
112.398
 21
59.9123
  0
LINE
  8
0
 10
112.398
 20
59.9123
 11
112.35
 21
60.4
  0
LINE
  8
0
 10
116.25
 20
-117.5
 11
116.331
 21
-117.013
  0
LINE
  8
0
 10
116.331
 20
-117.013
 11
116.566
 21
-116.579
  0
LINE
  8
0
 10
116.566
 20
-116.579
 11
116.93
 21
-116.244
  0
LINE
  8
0
 10
116.93
 20
-116.244
 11
117.382
 21
-116.046
  0
LINE
  8
0
 10
117.382
 20
-116.046
 11
117.874
 21
-116.005
  0
LINE
  8
0
 10
117.874
 20
-116.005
 11
118.353
 21
-116.126
  0
LINE
  8
0
 10
118.353
 20
-116.126
 11
118.766
 21
-116.396
  0
LINE
  8
0
 10
118.766
 20
-116.396
 11
119.069
 21
-116.786
  0
LINE
  8
0
 10
119.069
 20
-116.786
 11
119.23
 21
-117.253
  0
LINE
  8
0
 10
119.23
 20
-117.253
 11
119.23
 21
-117.747
  0
LINE
  8
0
 10
119.23
 20
-117.747
 11
119.069
 21
-118.214
  0
LINE
  8
0
 10
119.069
 20
-118.214
 11
118.766
 21
-118.604
  0
LINE
  8
0
 10
118.766
 20
-118.604
 11
118.353
 21
-118.874
  0
LINE
  8
0
 10
118.353
 20
-118.874
 11
117.874
 21
-118.995
  0
LINE
  8
0
 10
117.874
 20
-118.995
 11
117.382
 21
-118.954
  0
LINE
  8
0
 10
117.382
 20
-118.954
 11
116.93
 21
-118.756
  0
LINE
  8
0
 10
116.93
 20
-118.756
 11
116.566
 21
-118.421
  0
LINE
  8
0
 10
116.566
 20
-118.421
 11
116.331
 21
-117.987
  0
LINE
  8
0
 10
116.331
 20
-117.987
 11
116.25
 21
-117.5
  0
LINE
  8
0
 10
116.25
 20
50.4
 11
116.331
 21
50.8871
  0
LINE
  8
0
 10
116.331
 20
50.8871
 11
116.566
 21
51.3213
  0
LINE
  8
0
 10
116.566
 20
51.3213
 11
116.93
 21
51.6558
  0
LINE
  8
0
 10
116.93
 20
51.6558
 11
117.382
 21
51.8541
  0
LINE
  8
0
 10
117.382
 20
51.8541
 11
117.874
 21
51.8949
  0
LINE
  8
0
 10
117.874
 20
51.8949
 11
118.353
 21
51.7737
  0
LINE
  8
0
 10
118.353
 20
51.7737
 11
118.766
 21
51.5036
  0
LINE
  8
0
 10
118.766
 20
51.5036
 11
119.069
 21
51.1139
  0
LINE
  8
0
 10
119.069
 20
51.1139
 11
119.23
 21
50.6469
  0
LINE
  8
0
 10
119.23
 20
50.6469
 11
119.23
 21
50.1531
  0
LINE
  8
0
 10
119.23
 20
50.1531
 11
119.069
 21
49.6861
  0
LINE
  8
0
 10
119.069
 20
49.6861
 11
118.766
 21
49.2964
  0
LINE
  8
0
 10
118.766
 20
49.2964
 11
118.353
 21
49.0263
  0
LINE
  8
0
 10
118.353
 20
49.0263
 11
117.874
 21
48.9051
  0
LINE
  8
0
 10
117.874
 20
48.9051
 11
117.382
 21
48.9459
  0
LINE
  8
0
 10
117.382
 20
48.9459
 11
116.93
 21
49.1443
  0
LINE
  8
0
 10
116.93
 20
49.1443
 11
116.566
 21
49.4787
  0
LINE
  8
0
 10
116.566
 20
49.4787
 11
116.331
 21
49.913
  0
LINE
  8
0
 10
116.331
 20
49.913
 11
116.25
 21
50.4
  0
LINE
  8
0
 10
125.3
 20
-190.19
 11
125.355
 21
-189.7
  0
LINE
  8
0
 10
125.355
 20
-189.7
 11
125.518
 21
-189.235
  0
LINE
  8
0
 10
125.518
 20
-189.235
 11
125.78
 21
-188.818
  0
LINE
  8
0
 10
125.78
 20
-188.818
 11
126.128
 21
-188.47
  0
LINE
  8
0
 10
126.128
 20
-188.47
 11
126.545
 21
-188.208
  0
LINE
  8
0
 10
126.545
 20
-188.208
 11
127.01
 21
-188.045
  0
LINE
  8
0
 10
127.01
 20
-188.045
 11
127.5
 21
-187.99
  0
LINE
  8
0
 10
127.5
 20
-187.99
 11
127.99
 21
-188.045
  0
LINE
  8
0
 10
127.99
 20
-188.045
 11
128.455
 21
-188.208
  0
LINE
  8
0
 10
128.455
 20
-188.208
 11
128.872
 21
-188.47
  0
LINE
  8
0
 10
128.872
 20
-188.47
 11
129.22
 21
-188.818
  0
LINE
  8
0
 10
129.22
 20
-188.818
 11
129.482
 21
-189.235
  0
LINE
  8
0
 10
129.482
 20
-189.235
 11
129.645
 21
-189.7
  0
LINE
  8
0
 10
129.645
 20
-189.7
 11
129.7
 21
-190.19
  0
LINE
  8
0
 10
129.7
 20
-190.19
 11
129.645
 21
-190.68
  0
LINE
  8
0
 10
129.645
 20
-190.68
 11
129.482
 21
-191.145
  0
LINE
  8
0
 10
129.482
 20
-191.145
 11
129.22
 21
-191.562
  0
LINE
  8
0
 10
129.22
 20
-191.562
 11
128.872
 21
-191.91
  0
LINE
  8
0
 10
128.872
 20
-191.91
 11
128.455
 21
-192.172
  0
LINE
  8
0
 10
128.455
 20
-192.172
 11
127.99
 21
-192.335
  0
LINE
  8
0
 10
127.99
 20
-192.335
 11
127.5
 21
-192.39
  0
LINE
  8
0
 10
127.5
 20
-192.39
 11
127.01
 21
-192.335
  0
LINE
  8
0
 10
127.01
 20
-192.335
 11
126.545
 21
-192.172
  0
LINE
  8
0
 10
126.545
 20
-192.172
 11
126.128
 21
-191.91
  0
LINE
  8
0
 10
126.128
 20
-191.91
 11
125.78
 21
-191.562
  0
LINE
  8
0
 10
125.78
 20
-191.562
 11
125.518
 21
-191.145
  0
LINE
  8
0
 10
125.518
 20
-191.145
 11
125.355
 21
-190.68
  0
LINE
  8
0
 10
125.355
 20
-190.68
 11
125.3
 21
-190.19
  0
LINE
  8
0
 10
125.3
 20
190.19
 11
125.355
 21
190.68
  0
LINE
  8
0
 10
125.355
 20
190.68
 11
125.518
 21
191.145
  0
LINE
  8
0
 10
125.518
 20
191.145
 11
125.78
 21
191.562
  0
LINE
  8
0
 10
125.78
 20
191.562
 11
126.128
 21
191.91
  0
LINE
  8
0
 10
126.128
 20
191.91
 11
126.545
 21
192.172
  0
LINE
  8
0
 10
126.545
 20
192.172
 11
127.01
 21
192.335
  0
LINE
  8
0
 10
127.01
 20
192.335
 11
127.5
 21
192.39
  0
LINE
  8
0
 10
127.5
 20
192.39
 11
127.99
 21
192.335
  0
LINE
  8
0
 10
127.99
 20
192.335
 11
128.455
 21
192.172
  0
LINE
  8
0
 10
128.455
 20
192.172
 11
128.872
 21
191.91
  0
LINE
  8
0
 10
128.872
 20
191.91
 11
129.22
 21
191.562
  0
LINE
  8
0
 10
129.22
 20
191.562
 11
129.482
 21
191.145
  0
LINE
  8
0
 10
129.482
 20
191.145
 11
129.645
 21
190.68
  0
LINE
  8
0
 10
129.645
 20
190.68
 11
129.7
 21
190.19
  0
LINE
  8
0
 10
129.7
 20
190.19
 11
129.645
 21
189.7
  0
LINE
  8
0
 10
129.645
 20
189.7
 11
129.482
 21
189.235
  0
LINE
  8
0
 10
129.482
 20
189.235
 11
129.22
 21
188.818
  0
LINE
  8
0
 10
129.22
 20
188.818
 11
128.872
 21
188.47
  0
LINE
  8
0
 10
128.872
 20
188.47
 11
128.455
 21
188.208
  0
LINE
  8
0
 10
128.455
 20
188.208
 11
127.99
 21
188.045
  0
LINE
  8
0
 10
127.99
 20
188.045
 11
127.5
 21
187.99
  0
LINE
  8
0
 10
127.5
 20
187.99
 11
127.01
 21
188.045
  0
LINE
  8
0
 10
127.01
 20
188.045
 11
126.545
 21
188.208
  0
LINE
  8
0
 10
126.545
 20
188.208
 11
126.128
 21
188.47
  0
LINE
  8
0
 10
126.128
 20
188.47
 11
125.78
 21
188.818
  0
LINE
  8
0
 10
125.78
 20
188.818
 11
125.518
 21
189.235
  0
LINE
  8
0
 10
125.518
 20
189.235
 11
125.355
 21
189.7
  0
LINE
  8
0
 10
125.355
 20
189.7
 11
125.3
 21
190.19
  0
LINE
  8
0
 10
154.258
 20
-0.246243
 11
154.258
 21
0.246243
  0
LINE
  8
0
 10
154.258
 20
0.246243
 11
154.318
 21
0.734998
  0
LINE
  8
0
 10
154.318
 20
0.734998
 11
154.438
 21
1.21261
  0
LINE
  8
0
 10
154.438
 20
1.21261
 11
154.616
 21
1.67184
  0
LINE
  8
0
 10
154.616
 20
1.67184
 11
154.849
 21
2.10573
  0
LINE
  8
0
 10
154.849
 20
2.10573
 11
155.134
 21
2.5077
  0
LINE
  8
0
 10
155.134
 20
2.5077
 11
155.465
 21
2.87165
  0
LINE
  8
0
 10
155.465
 20
2.87165
 11
155.839
 21
3.19207
  0
LINE
  8
0
 10
155.839
 20
3.19207
 11
156.25
 21
3.4641
  0
LINE
  8
0
 10
156.25
 20
3.4641
 11
156.691
 21
3.68362
  0
LINE
  8
0
 10
156.691
 20
3.68362
 11
157.155
 21
3.8473
  0
LINE
  8
0
 10
157.155
 20
3.8473
 11
157.636
 21
3.95266
  0
LINE
  8
0
 10
157.636
 20
3.95266
 11
158.127
 21
3.9981
  0
LINE
  8
0
 10
158.127
 20
3.9981
 11
158.619
 21
3.98294
  0
LINE
  8
0
 10
158.619
 20
3.98294
 11
159.106
 21
3.90739
  0
LINE
  8
0
 10
159.106
 20
3.90739
 11
159.579
 21
3.77262
  0
LINE
  8
0
 10
159.579
 20
3.77262
 11
160.033
 21
3.58065
  0
LINE
  8
0
 10
160.033
 20
3.58065
 11
160.459
 21
3.33441
  0
LINE
  8
0
 10
160.459
 20
3.33441
 11
160.852
 21
3.03762
  0
LINE
  8
0
 10
160.852
 20
3.03762
 11
161.206
 21
2.69478
  0
LINE
  8
0
 10
161.206
 20
2.69478
 11
161.515
 21
2.3111
  0
LINE
  8
0
 10
161.515
 20
2.3111
 11
161.774
 21
1.89237
  0
LINE
  8
0
 10
161.774
 20
1.89237
 11
161.98
 21
1.44497
  0
LINE
  8
0
 10
161.98
 20
1.44497
 11
162.129
 21
0.975655
  0
LINE
  8
0
 10
162.129
 20
0.975655
 11
162.22
 21
0.491552
  0
LINE
  8
0
 10
162.22
 20
0.491552
 11
162.25
 21
0
  0
LINE
  8
0
 10
162.25
 20
0
 11
162.22
 21
-0.491552
  0
LINE
  8
0
 10
162.22
 20
-0.491552
 11
162.129
 21
-0.975655
  0
LINE
  8
0
 10
162.129
 20
-0.975655
 11
161.98
 21
-1.44497
  0
LINE
  8
0
 10
161.98
 20
-1.44497
 11
161.774
 21
-1.89237
  0
LINE
  8
0
 10
161.774
 20
-1.89237
 11
161.515
 21
-2.3111
  0
LINE
  8
0
 10
161.515
 20
-2.3111
 11
161.206
 21
-2.69478
  0
LINE
  8
0
 10
161.206
 20
-2.69478
 11
160.852
 21
-3.03762
  0
LINE
  8
0
 10
160.852
 20
-3.03762
 11
160.459
 21
-3.33441
  0
LINE
  8
0
 10
160.459
 20
-3.33441
 11
160.033
 21
-3.58065
  0
LINE
  8
0
 10
160.033
 20
-3.58065
 11
159.579
 21
-3.77262
  0
LINE
  8
0
 10
159.579
 20
-3.77262
 11
159.106
 21
-3.90739
  0
LINE
  8
0
 10
159.106
 20
-3.90739
 11
158.619
 21
-3.98294
  0
LINE
  8
0
 10
158.619
 20
-3.98294
 11
158.127
 21
-3.9981
  0
LINE
  8
0
 10
158.127
 20
-3.9981
 11
157.636
 21
-3.95266
  0
LINE
  8
0
 10
157.636
 20
-3.95266
 11
157.155
 21
-3.8473
  0
LINE
  8
0
 10
157.155
 20
-3.8473
 11
156.691
 21
-3.68362
  0
LINE
  8
0
 10
156.691
 20
-3.68362
 11
156.25
 21
-3.4641
  0
LINE
  8
0
 10
156.25
 20
-3.4641
 11
155.839
 21
-3.19207
  0
LINE
  8
0
 10
155.839
 20
-3.19207
 11
155.465
 21
-2.87165
  0
LINE
  8
0
 10
155.465
 20
-2.87165
 11
155.134
 21
-2.5077
  0
LINE
  8
0
 10
155.134
 20
-2.5077
 11
154.849
 21
-2.10573
  0
LINE
  8
0
 10
154.849
 20
-2.10573
 11
154.616
 21
-1.67184
  0
LINE
  8
0
 10
154.616
 20
-1.67184
 11
154.438
 21
-1.21261
  0
LINE
  8
0
 10
154.438
 20
-1.21261
 11
154.318
 21
-0.734998
  0
LINE
  8
0
 10
154.318
 20
-0.734998
 11
154.258
 21
-0.246243
  0
LINE
  8
0
 10
154.81
 20
50.7
 11
154.865
 21
51.1895
  0
LINE
  8
0
 10
154.865
 20
51.1895
 11
155.028
 21
51.6545
  0
LINE
  8
0
 10
155.028
 20
51.6545
 11
155.29
 21
52.0717
  0
LINE
  8
0
 10
155.29
 20
52.0717
 11
155.638
 21
52.42
  0
LINE
  8
0
 10
155.638
 20
52.42
 11
156.055
 21
52.6821
  0
LINE
  8
0
 10
156.055
 20
52.6821
 11
156.52
 21
52.8448
  0
LINE
  8
0
 10
156.52
 20
52.8448
 11
157.01
 21
52.9
  0
LINE
  8
0
 10
157.01
 20
52.9
 11
157.5
 21
52.8448
  0
LINE
  8
0
 10
157.5
 20
52.8448
 11
157.965
 21
52.6821
  0
LINE
  8
0
 10
157.965
 20
52.6821
 11
158.382
 21
52.42
  0
LINE
  8
0
 10
158.382
 20
52.42
 11
158.73
 21
52.0717
  0
LINE
  8
0
 10
158.73
 20
52.0717
 11
158.992
 21
51.6545
  0
LINE
  8
0
 10
158.992
 20
51.6545
 11
159.155
 21
51.1895
  0
LINE
  8
0
 10
159.155
 20
51.1895
 11
159.21
 21
50.7
  0
LINE
  8
0
 10
159.21
 20
50.7
 11
159.155
 21
50.2105
  0
LINE
  8
0
 10
159.155
 20
50.2105
 11
158.992
 21
49.7455
  0
LINE
  8
0
 10
158.992
 20
49.7455
 11
158.73
 21
49.3283
  0
LINE
  8
0
 10
158.73
 20
49.3283
 11
158.382
 21
48.98
  0
LINE
  8
0
 10
158.382
 20
48.98
 11
157.965
 21
48.7179
  0
LINE
  8
0
 10
157.965
 20
48.7179
 11
157.5
 21
48.5552
  0
LINE
  8
0
 10
157.5
 20
48.5552
 11
157.01
 21
48.5
  0
LINE
  8
0
 10
157.01
 20
48.5
 11
156.52
 21
48.5552
  0
LINE
  8
0
 10
156.52
 20
48.5552
 11
156.055
 21
48.7179
  0
LINE
  8
0
 10
156.055
 20
48.7179
 11
155.638
 21
48.98
  0
LINE
  8
0
 10
155.638
 20
48.98
 11
155.29
 21
49.3283
  0
LINE
  8
0
 10
155.29
 20
49.3283
 11
155.028
 21
49.7455
  0
LINE
  8
0
 10
155.028
 20
49.7455
 11
154.865
 21
50.2105
  0
LINE
  8
0
 10
154.865
 20
50.2105
 11
154.81
 21
50.7
  0
LINE
  8
0
 10
210.74
 20
50.7
 11
210.795
 21
51.1895
  0
LINE
  8
0
 10
210.795
 20
51.1895
 11
210.958
 21
51.6545
  0
LINE
  8
0
 10
210.958
 20
51.6545
 11
211.22
 21
52.0717
  0
LINE
  8
0
 10
211.22
 20
52.0717
 11
211.568
 21
52.42
  0
LINE
  8
0
 10
211.568
 20
52.42
 11
211.985
 21
52.6821
  0
LINE
  8
0
 10
211.985
 20
52.6821
 11
212.45
 21
52.8448
  0
LINE
  8
0
 10
212.45
 20
52.8448
 11
212.94
 21
52.9
  0
LINE
  8
0
 10
212.94
 20
52.9
 11
213.43
 21
52.8448
  0
LINE
  8
0
 10
213.43
 20
52.8448
 11
213.895
 21
52.6821
  0
LINE
  8
0
 10
213.895
 20
52.6821
 11
214.312
 21
52.42
  0
LINE
  8
0
 10
214.312
 20
52.42
 11
214.66
 21
52.0717
  0
LINE
  8
0
 10
214.66
 20
52.0717
 11
214.922
 21
51.6545
  0
LINE
  8
0
 10
214.922
 20
51.6545
 11
215.085
 21
51.1895
  0
LINE
  8
0
 10
215.085
 20
51.1895
 11
215.14
 21
50.7
  0
LINE
  8
0
 10
215.14
 20
50.7
 11
215.085
 21
50.2105
  0
LINE
  8
0
 10
215.085
 20
50.2105
 11
214.922
 21
49.7455
  0
LINE
  8
0
 10
214.922
 20
49.7455
 11
214.66
 21
49.3283
  0
LINE
  8
0
 10
214.66
 20
49.3283
 11
214.312
 21
48.98
  0
LINE
  8
0
 10
214.312
 20
48.98
 11
213.895
 21
48.7179
  0
LINE
  8
0
 10
213.895
 20
48.7179
 11
213.43
 21
48.5552
  0
LINE
  8
0
 10
213.43
 20
48.5552
 11
212.94
 21
48.5
  0
LINE
  8
0
 10
212.94
 20
48.5
 11
212.45
 21
48.5552
  0
LINE
  8
0
 10
212.45
 20
48.5552
 11
211.985
 21
48.7179
  0
LINE
  8
0
 10
211.985
 20
48.7179
 11
211.568
 21
48.98
  0
LINE
  8
0
 10
211.568
 20
48.98
 11
211.22
 21
49.3283
  0
LINE
  8
0
 10
211.22
 20
49.3283
 11
210.958
 21
49.7455
  0
LINE
  8
0
 10
210.958
 20
49.7455
 11
210.795
 21
50.2105
  0
LINE
  8
0
 10
210.795
 20
50.2105
 11
210.74
 21
50.7
  0
LINE
  8
0
 10
217.85
 20
70.35
 11
217.905
 21
70.8395
  0
LINE
  8
0
 10
217.905
 20
70.8395
 11
218.068
 21
71.3045
  0
LINE
  8
0
 10
218.068
 20
71.3045
 11
218.33
 21
71.7217
  0
LINE
  8
0
 10
218.33
 20
71.7217
 11
218.678
 21
72.07
  0
LINE
  8
0
 10
218.678
 20
72.07
 11
219.095
 21
72.3321
  0
LINE
  8
0
 10
219.095
 20
72.3321
 11
219.56
 21
72.4948
  0
LINE
  8
0
 10
219.56
 20
72.4948
 11
220.05
 21
72.55
  0
LINE
  8
0
 10
220.05
 20
72.55
 11
220.54
 21
72.4948
  0
LINE
  8
0
 10
220.54
 20
72.4948
 11
221.005
 21
72.3321
  0
LINE
  8
0
 10
221.005
 20
72.3321
 11
221.422
 21
72.07
  0
LINE
  8
0
 10
221.422
 20
72.07
 11
221.77
 21
71.7217
  0
LINE
  8
0
 10
221.77
 20
71.7217
 11
222.032
 21
71.3045
  0
LINE
  8
0
 10
222.032
 20
71.3045
 11
222.195
 21
70.8395
  0
LINE
  8
0
 10
222.195
 20
70.8395
 11
222.25
 21
70.35
  0
LINE
  8
0
 10
222.25
 20
70.35
 11
222.195
 21
69.8605
  0
LINE
  8
0
 10
222.195
 20
69.8605
 11
222.032
 21
69.3955
  0
LINE
  8
0
 10
222.032
 20
69.3955
 11
221.77
 21
68.9783
  0
LINE
  8
0
 10
221.77
 20
68.9783
 11
221.422
 21
68.63
  0
LINE
  8
0
 10
221.422
 20
68.63
 11
221.005
 21
68.3679
  0
LINE
  8
0
 10
221.005
 20
68.3679
 11
220.54
 21
68.2052
  0
LINE
  8
0
 10
220.54
 20
68.2052
 11
220.05
 21
68.15
  0
LINE
  8
0
 10
220.05
 20
68.15
 11
219.56
 21
68.2052
  0
LINE
  8
0
 10
219.56
 20
68.2052
 11
219.095
 21
68.3679
  0
LINE
  8
0
 10
219.095
 20
68.3679
 11
218.678
 21
68.63
  0
LINE
  8
0
 10
218.678
 20
68.63
 11
218.33
 21
68.9783
  0
LINE
  8
0
 10
218.33
 20
68.9783
 11
218.068
 21
69.3955
  0
LINE
  8
0
 10
218.068
 20
69.3955
 11
217.905
 21
69.8605
  0
LINE
  8
0
 10
217.905
 20
69.8605
 11
217.85
 21
70.35
  0
ENDSEC
  0
SECTION
  2
OBJECTS
  0
DICTIONARY
  0
ENDSEC
  0
EOF
