  0
SECTION
  2
BLOCKS
  0
ENDSEC
  0
SECTION
  2
ENTITIES
  0
LINE
  8
0
 10
-178
 20
-131.5
 11
-177.905
 21
-133.679
  0
LINE
  8
0
 10
-177.905
 20
-133.679
 11
-177.62
 21
-135.841
  0
LINE
  8
0
 10
-177.62
 20
-135.841
 11
-177.148
 21
-137.97
  0
LINE
  8
0
 10
-177.148
 20
-137.97
 11
-176.492
 21
-140.051
  0
LINE
  8
0
 10
-176.492
 20
-140.051
 11
-175.658
 21
-142.065
  0
LINE
  8
0
 10
-175.658
 20
-142.065
 11
-174.651
 21
-144
  0
LINE
  8
0
 10
-174.651
 20
-144
 11
-173.479
 21
-145.839
  0
LINE
  8
0
 10
-173.479
 20
-145.839
 11
-172.151
 21
-147.57
  0
LINE
  8
0
 10
-172.151
 20
-147.57
 11
-170.678
 21
-149.178
  0
LINE
  8
0
 10
-170.678
 20
-149.178
 11
-169.07
 21
-150.651
  0
LINE
  8
0
 10
-169.07
 20
-150.651
 11
-167.339
 21
-151.979
  0
LINE
  8
0
 10
-167.339
 20
-151.979
 11
-165.5
 21
-153.151
  0
LINE
  8
0
 10
-165.5
 20
-153.151
 11
-163.565
 21
-154.158
  0
LINE
  8
0
 10
-163.565
 20
-154.158
 11
-161.551
 21
-154.992
  0
LINE
  8
0
 10
-161.551
 20
-154.992
 11
-159.47
 21
-155.648
  0
LINE
  8
0
 10
-159.47
 20
-155.648
 11
-157.341
 21
-156.12
  0
LINE
  8
0
 10
-157.341
 20
-156.12
 11
-155.179
 21
-156.405
  0
LINE
  8
0
 10
-155.179
 20
-156.405
 11
-153
 21
-156.5
  0
LINE
  8
0
 10
-153
 20
-156.5
 11
153
 21
-156.5
  0
LINE
  8
0
 10
153
 20
-156.5
 11
155.179
 21
-156.405
  0
LINE
  8
0
 10
155.179
 20
-156.405
 11
157.341
 21
-156.12
  0
LINE
  8
0
 10
157.341
 20
-156.12
 11
159.47
 21
-155.648
  0
LINE
  8
0
 10
159.47
 20
-155.648
 11
161.551
 21
-154.992
  0
LINE
  8
0
 10
161.551
 20
-154.992
 11
163.565
 21
-154.158
  0
LINE
  8
0
 10
163.565
 20
-154.158
 11
165.5
 21
-153.151
  0
LINE
  8
0
 10
165.5
 20
-153.151
 11
167.339
 21
-151.979
  0
LINE
  8
0
 10
167.339
 20
-151.979
 11
169.07
 21
-150.651
  0
LINE
  8
0
 10
169.07
 20
-150.651
 11
170.678
 21
-149.178
  0
LINE
  8
0
 10
170.678
 20
-149.178
 11
172.151
 21
-147.57
  0
LINE
  8
0
 10
172.151
 20
-147.57
 11
173.479
 21
-145.839
  0
LINE
  8
0
 10
173.479
 20
-145.839
 11
174.651
 21
-144
  0
LINE
  8
0
 10
174.651
 20
-144
 11
175.658
 21
-142.065
  0
LINE
  8
0
 10
175.658
 20
-142.065
 11
176.492
 21
-140.051
  0
LINE
  8
0
 10
176.492
 20
-140.051
 11
177.148
 21
-137.97
  0
LINE
  8
0
 10
177.148
 20
-137.97
 11
177.62
 21
-135.841
  0
LINE
  8
0
 10
177.62
 20
-135.841
 11
177.905
 21
-133.679
  0
LINE
  8
0
 10
177.905
 20
-133.679
 11
178
 21
-131.5
  0
LINE
  8
0
 10
178
 20
-131.5
 11
178
 21
131.5
  0
LINE
  8
0
 10
178
 20
131.5
 11
177.905
 21
133.679
  0
LINE
  8
0
 10
177.905
 20
133.679
 11
177.62
 21
135.841
  0
LINE
  8
0
 10
177.62
 20
135.841
 11
177.148
 21
137.97
  0
LINE
  8
0
 10
177.148
 20
137.97
 11
176.492
 21
140.051
  0
LINE
  8
0
 10
176.492
 20
140.051
 11
175.658
 21
142.065
  0
LINE
  8
0
 10
175.658
 20
142.065
 11
174.651
 21
144
  0
LINE
  8
0
 10
174.651
 20
144
 11
173.479
 21
145.839
  0
LINE
  8
0
 10
173.479
 20
145.839
 11
172.151
 21
147.57
  0
LINE
  8
0
 10
172.151
 20
147.57
 11
170.678
 21
149.178
  0
LINE
  8
0
 10
170.678
 20
149.178
 11
169.07
 21
150.651
  0
LINE
  8
0
 10
169.07
 20
150.651
 11
167.339
 21
151.979
  0
LINE
  8
0
 10
167.339
 20
151.979
 11
165.5
 21
153.151
  0
LINE
  8
0
 10
165.5
 20
153.151
 11
163.565
 21
154.158
  0
LINE
  8
0
 10
163.565
 20
154.158
 11
161.551
 21
154.992
  0
LINE
  8
0
 10
161.551
 20
154.992
 11
159.47
 21
155.648
  0
LINE
  8
0
 10
159.47
 20
155.648
 11
157.341
 21
156.12
  0
LINE
  8
0
 10
157.341
 20
156.12
 11
155.179
 21
156.405
  0
LINE
  8
0
 10
155.179
 20
156.405
 11
153
 21
156.5
  0
LINE
  8
0
 10
153
 20
156.5
 11
-153
 21
156.5
  0
LINE
  8
0
 10
-153
 20
156.5
 11
-155.179
 21
156.405
  0
LINE
  8
0
 10
-155.179
 20
156.405
 11
-157.341
 21
156.12
  0
LINE
  8
0
 10
-157.341
 20
156.12
 11
-159.47
 21
155.648
  0
LINE
  8
0
 10
-159.47
 20
155.648
 11
-161.551
 21
154.992
  0
LINE
  8
0
 10
-161.551
 20
154.992
 11
-163.565
 21
154.158
  0
LINE
  8
0
 10
-163.565
 20
154.158
 11
-165.5
 21
153.151
  0
LINE
  8
0
 10
-165.5
 20
153.151
 11
-167.339
 21
151.979
  0
LINE
  8
0
 10
-167.339
 20
151.979
 11
-169.07
 21
150.651
  0
LINE
  8
0
 10
-169.07
 20
150.651
 11
-170.678
 21
149.178
  0
LINE
  8
0
 10
-170.678
 20
149.178
 11
-172.151
 21
147.57
  0
LINE
  8
0
 10
-172.151
 20
147.57
 11
-173.479
 21
145.839
  0
LINE
  8
0
 10
-173.479
 20
145.839
 11
-174.651
 21
144
  0
LINE
  8
0
 10
-174.651
 20
144
 11
-175.658
 21
142.065
  0
LINE
  8
0
 10
-175.658
 20
142.065
 11
-176.492
 21
140.051
  0
LINE
  8
0
 10
-176.492
 20
140.051
 11
-177.148
 21
137.97
  0
LINE
  8
0
 10
-177.148
 20
137.97
 11
-177.62
 21
135.841
  0
LINE
  8
0
 10
-177.62
 20
135.841
 11
-177.905
 21
133.679
  0
LINE
  8
0
 10
-177.905
 20
133.679
 11
-178
 21
131.5
  0
LINE
  8
0
 10
-178
 20
131.5
 11
-178
 21
-131.5
  0
LINE
  8
0
 10
-164.122
 20
41.0241
 11
-164.122
 21
41.5159
  0
LINE
  8
0
 10
-164.122
 20
41.5159
 11
-163.977
 21
41.9859
  0
LINE
  8
0
 10
-163.977
 20
41.9859
 11
-163.7
 21
42.3923
  0
LINE
  8
0
 10
-163.7
 20
42.3923
 11
-163.315
 21
42.6989
  0
LINE
  8
0
 10
-163.315
 20
42.6989
 11
-162.857
 21
42.8786
  0
LINE
  8
0
 10
-162.857
 20
42.8786
 11
-162.367
 21
42.9154
  0
LINE
  8
0
 10
-162.367
 20
42.9154
 11
-161.887
 21
42.8059
  0
LINE
  8
0
 10
-161.887
 20
42.8059
 11
-161.461
 21
42.56
  0
LINE
  8
0
 10
-161.461
 20
42.56
 11
-161.127
 21
42.1995
  0
LINE
  8
0
 10
-161.127
 20
42.1995
 11
-160.913
 21
41.7563
  0
LINE
  8
0
 10
-160.913
 20
41.7563
 11
-160.84
 21
41.27
  0
LINE
  8
0
 10
-160.84
 20
41.27
 11
-160.913
 21
40.7837
  0
LINE
  8
0
 10
-160.913
 20
40.7837
 11
-161.127
 21
40.3405
  0
LINE
  8
0
 10
-161.127
 20
40.3405
 11
-161.461
 21
39.98
  0
LINE
  8
0
 10
-161.461
 20
39.98
 11
-161.887
 21
39.7341
  0
LINE
  8
0
 10
-161.887
 20
39.7341
 11
-162.367
 21
39.6246
  0
LINE
  8
0
 10
-162.367
 20
39.6246
 11
-162.857
 21
39.6614
  0
LINE
  8
0
 10
-162.857
 20
39.6614
 11
-163.315
 21
39.8411
  0
LINE
  8
0
 10
-163.315
 20
39.8411
 11
-163.7
 21
40.1477
  0
LINE
  8
0
 10
-163.7
 20
40.1477
 11
-163.977
 21
40.5541
  0
LINE
  8
0
 10
-163.977
 20
40.5541
 11
-164.122
 21
41.0241
  0
LINE
  8
0
 10
-157.492
 20
-0.246243
 11
-157.492
 21
0.246243
  0
LINE
  8
0
 10
-157.492
 20
0.246243
 11
-157.432
 21
0.734998
  0
LINE
  8
0
 10
-157.432
 20
0.734998
 11
-157.312
 21
1.21261
  0
LINE
  8
0
 10
-157.312
 20
1.21261
 11
-157.134
 21
1.67184
  0
LINE
  8
0
 10
-157.134
 20
1.67184
 11
-156.901
 21
2.10573
  0
LINE
  8
0
 10
-156.901
 20
2.10573
 11
-156.616
 21
2.5077
  0
LINE
  8
0
 10
-156.616
 20
2.5077
 11
-156.285
 21
2.87165
  0
LINE
  8
0
 10
-156.285
 20
2.87165
 11
-155.911
 21
3.19207
  0
LINE
  8
0
 10
-155.911
 20
3.19207
 11
-155.5
 21
3.4641
  0
LINE
  8
0
 10
-155.5
 20
3.4641
 11
-155.059
 21
3.68362
  0
LINE
  8
0
 10
-155.059
 20
3.68362
 11
-154.595
 21
3.8473
  0
LINE
  8
0
 10
-154.595
 20
3.8473
 11
-154.114
 21
3.95266
  0
LINE
  8
0
 10
-154.114
 20
3.95266
 11
-153.623
 21
3.9981
  0
LINE
  8
0
 10
-153.623
 20
3.9981
 11
-153.131
 21
3.98294
  0
LINE
  8
0
 10
-153.131
 20
3.98294
 11
-152.644
 21
3.90739
  0
LINE
  8
0
 10
-152.644
 20
3.90739
 11
-152.171
 21
3.77262
  0
LINE
  8
0
 10
-152.171
 20
3.77262
 11
-151.717
 21
3.58065
  0
LINE
  8
0
 10
-151.717
 20
3.58065
 11
-151.291
 21
3.33441
  0
LINE
  8
0
 10
-151.291
 20
3.33441
 11
-150.898
 21
3.03762
  0
LINE
  8
0
 10
-150.898
 20
3.03762
 11
-150.544
 21
2.69478
  0
LINE
  8
0
 10
-150.544
 20
2.69478
 11
-150.235
 21
2.3111
  0
LINE
  8
0
 10
-150.235
 20
2.3111
 11
-149.976
 21
1.89237
  0
LINE
  8
0
 10
-149.976
 20
1.89237
 11
-149.77
 21
1.44497
  0
LINE
  8
0
 10
-149.77
 20
1.44497
 11
-149.621
 21
0.975655
  0
LINE
  8
0
 10
-149.621
 20
0.975655
 11
-149.53
 21
0.491552
  0
LINE
  8
0
 10
-149.53
 20
0.491552
 11
-149.5
 21
0
  0
LINE
  8
0
 10
-149.5
 20
0
 11
-149.53
 21
-0.491552
  0
LINE
  8
0
 10
-149.53
 20
-0.491552
 11
-149.621
 21
-0.975655
  0
LINE
  8
0
 10
-149.621
 20
-0.975655
 11
-149.77
 21
-1.44497
  0
LINE
  8
0
 10
-149.77
 20
-1.44497
 11
-149.976
 21
-1.89237
  0
LINE
  8
0
 10
-149.976
 20
-1.89237
 11
-150.235
 21
-2.3111
  0
LINE
  8
0
 10
-150.235
 20
-2.3111
 11
-150.544
 21
-2.69478
  0
LINE
  8
0
 10
-150.544
 20
-2.69478
 11
-150.898
 21
-3.03762
  0
LINE
  8
0
 10
-150.898
 20
-3.03762
 11
-151.291
 21
-3.33441
  0
LINE
  8
0
 10
-151.291
 20
-3.33441
 11
-151.717
 21
-3.58065
  0
LINE
  8
0
 10
-151.717
 20
-3.58065
 11
-152.171
 21
-3.77262
  0
LINE
  8
0
 10
-152.171
 20
-3.77262
 11
-152.644
 21
-3.90739
  0
LINE
  8
0
 10
-152.644
 20
-3.90739
 11
-153.131
 21
-3.98294
  0
LINE
  8
0
 10
-153.131
 20
-3.98294
 11
-153.623
 21
-3.9981
  0
LINE
  8
0
 10
-153.623
 20
-3.9981
 11
-154.114
 21
-3.95266
  0
LINE
  8
0
 10
-154.114
 20
-3.95266
 11
-154.595
 21
-3.8473
  0
LINE
  8
0
 10
-154.595
 20
-3.8473
 11
-155.059
 21
-3.68362
  0
LINE
  8
0
 10
-155.059
 20
-3.68362
 11
-155.5
 21
-3.4641
  0
LINE
  8
0
 10
-155.5
 20
-3.4641
 11
-155.911
 21
-3.19207
  0
LINE
  8
0
 10
-155.911
 20
-3.19207
 11
-156.285
 21
-2.87165
  0
LINE
  8
0
 10
-156.285
 20
-2.87165
 11
-156.616
 21
-2.5077
  0
LINE
  8
0
 10
-156.616
 20
-2.5077
 11
-156.901
 21
-2.10573
  0
LINE
  8
0
 10
-156.901
 20
-2.10573
 11
-157.134
 21
-1.67184
  0
LINE
  8
0
 10
-157.134
 20
-1.67184
 11
-157.312
 21
-1.21261
  0
LINE
  8
0
 10
-157.312
 20
-1.21261
 11
-157.432
 21
-0.734998
  0
LINE
  8
0
 10
-157.432
 20
-0.734998
 11
-157.492
 21
-0.246243
  0
LINE
  8
0
 10
-129.795
 20
-141.113
 11
-129.759
 21
-140.623
  0
LINE
  8
0
 10
-129.759
 20
-140.623
 11
-129.579
 21
-140.165
  0
LINE
  8
0
 10
-129.579
 20
-140.165
 11
-129.272
 21
-139.78
  0
LINE
  8
0
 10
-129.272
 20
-139.78
 11
-128.866
 21
-139.503
  0
LINE
  8
0
 10
-128.866
 20
-139.503
 11
-128.396
 21
-139.358
  0
LINE
  8
0
 10
-128.396
 20
-139.358
 11
-127.904
 21
-139.358
  0
LINE
  8
0
 10
-127.904
 20
-139.358
 11
-127.434
 21
-139.503
  0
LINE
  8
0
 10
-127.434
 20
-139.503
 11
-127.028
 21
-139.78
  0
LINE
  8
0
 10
-127.028
 20
-139.78
 11
-126.721
 21
-140.165
  0
LINE
  8
0
 10
-126.721
 20
-140.165
 11
-126.541
 21
-140.623
  0
LINE
  8
0
 10
-126.541
 20
-140.623
 11
-126.505
 21
-141.113
  0
LINE
  8
0
 10
-126.505
 20
-141.113
 11
-126.614
 21
-141.593
  0
LINE
  8
0
 10
-126.614
 20
-141.593
 11
-126.86
 21
-142.019
  0
LINE
  8
0
 10
-126.86
 20
-142.019
 11
-127.221
 21
-142.353
  0
LINE
  8
0
 10
-127.221
 20
-142.353
 11
-127.664
 21
-142.567
  0
LINE
  8
0
 10
-127.664
 20
-142.567
 11
-128.15
 21
-142.64
  0
LINE
  8
0
 10
-128.15
 20
-142.64
 11
-128.636
 21
-142.567
  0
LINE
  8
0
 10
-128.636
 20
-142.567
 11
-129.079
 21
-142.353
  0
LINE
  8
0
 10
-129.079
 20
-142.353
 11
-129.44
 21
-142.019
  0
LINE
  8
0
 10
-129.44
 20
-142.019
 11
-129.686
 21
-141.593
  0
LINE
  8
0
 10
-129.686
 20
-141.593
 11
-129.795
 21
-141.113
  0
LINE
  8
0
 10
-129.795
 20
140.867
 11
-129.759
 21
141.357
  0
LINE
  8
0
 10
-129.759
 20
141.357
 11
-129.579
 21
141.815
  0
LINE
  8
0
 10
-129.579
 20
141.815
 11
-129.272
 21
142.2
  0
LINE
  8
0
 10
-129.272
 20
142.2
 11
-128.866
 21
142.477
  0
LINE
  8
0
 10
-128.866
 20
142.477
 11
-128.396
 21
142.622
  0
LINE
  8
0
 10
-128.396
 20
142.622
 11
-127.904
 21
142.622
  0
LINE
  8
0
 10
-127.904
 20
142.622
 11
-127.434
 21
142.477
  0
LINE
  8
0
 10
-127.434
 20
142.477
 11
-127.028
 21
142.2
  0
LINE
  8
0
 10
-127.028
 20
142.2
 11
-126.721
 21
141.815
  0
LINE
  8
0
 10
-126.721
 20
141.815
 11
-126.541
 21
141.357
  0
LINE
  8
0
 10
-126.541
 20
141.357
 11
-126.505
 21
140.867
  0
LINE
  8
0
 10
-126.505
 20
140.867
 11
-126.614
 21
140.387
  0
LINE
  8
0
 10
-126.614
 20
140.387
 11
-126.86
 21
139.961
  0
LINE
  8
0
 10
-126.86
 20
139.961
 11
-127.221
 21
139.627
  0
LINE
  8
0
 10
-127.221
 20
139.627
 11
-127.664
 21
139.413
  0
LINE
  8
0
 10
-127.664
 20
139.413
 11
-128.15
 21
139.34
  0
LINE
  8
0
 10
-128.15
 20
139.34
 11
-128.636
 21
139.413
  0
LINE
  8
0
 10
-128.636
 20
139.413
 11
-129.079
 21
139.627
  0
LINE
  8
0
 10
-129.079
 20
139.627
 11
-129.44
 21
139.961
  0
LINE
  8
0
 10
-129.44
 20
139.961
 11
-129.686
 21
140.387
  0
LINE
  8
0
 10
-129.686
 20
140.387
 11
-129.795
 21
140.867
  0
LINE
  8
0
 10
-120.142
 20
41.0241
 11
-120.142
 21
41.5159
  0
LINE
  8
0
 10
-120.142
 20
41.5159
 11
-119.997
 21
41.9859
  0
LINE
  8
0
 10
-119.997
 20
41.9859
 11
-119.72
 21
42.3923
  0
LINE
  8
0
 10
-119.72
 20
42.3923
 11
-119.335
 21
42.6989
  0
LINE
  8
0
 10
-119.335
 20
42.6989
 11
-118.877
 21
42.8786
  0
LINE
  8
0
 10
-118.877
 20
42.8786
 11
-118.387
 21
42.9154
  0
LINE
  8
0
 10
-118.387
 20
42.9154
 11
-117.907
 21
42.8059
  0
LINE
  8
0
 10
-117.907
 20
42.8059
 11
-117.481
 21
42.56
  0
LINE
  8
0
 10
-117.481
 20
42.56
 11
-117.147
 21
42.1995
  0
LINE
  8
0
 10
-117.147
 20
42.1995
 11
-116.933
 21
41.7563
  0
LINE
  8
0
 10
-116.933
 20
41.7563
 11
-116.86
 21
41.27
  0
LINE
  8
0
 10
-116.86
 20
41.27
 11
-116.933
 21
40.7837
  0
LINE
  8
0
 10
-116.933
 20
40.7837
 11
-117.147
 21
40.3405
  0
LINE
  8
0
 10
-117.147
 20
40.3405
 11
-117.481
 21
39.98
  0
LINE
  8
0
 10
-117.481
 20
39.98
 11
-117.907
 21
39.7341
  0
LINE
  8
0
 10
-117.907
 20
39.7341
 11
-118.387
 21
39.6246
  0
LINE
  8
0
 10
-118.387
 20
39.6246
 11
-118.877
 21
39.6614
  0
LINE
  8
0
 10
-118.877
 20
39.6614
 11
-119.335
 21
39.8411
  0
LINE
  8
0
 10
-119.335
 20
39.8411
 11
-119.72
 21
40.1477
  0
LINE
  8
0
 10
-119.72
 20
40.1477
 11
-119.997
 21
40.5541
  0
LINE
  8
0
 10
-119.997
 20
40.5541
 11
-120.142
 21
41.0241
  0
LINE
  8
0
 10
-94.5254
 20
-149.877
 11
-94.4159
 21
-149.397
  0
LINE
  8
0
 10
-94.4159
 20
-149.397
 11
-94.17
 21
-148.971
  0
LINE
  8
0
 10
-94.17
 20
-148.971
 11
-93.8095
 21
-148.637
  0
LINE
  8
0
 10
-93.8095
 20
-148.637
 11
-93.3663
 21
-148.423
  0
LINE
  8
0
 10
-93.3663
 20
-148.423
 11
-92.88
 21
-148.35
  0
LINE
  8
0
 10
-92.88
 20
-148.35
 11
-92.3937
 21
-148.423
  0
LINE
  8
0
 10
-92.3937
 20
-148.423
 11
-91.9505
 21
-148.637
  0
LINE
  8
0
 10
-91.9505
 20
-148.637
 11
-91.59
 21
-148.971
  0
LINE
  8
0
 10
-91.59
 20
-148.971
 11
-91.3441
 21
-149.397
  0
LINE
  8
0
 10
-91.3441
 20
-149.397
 11
-91.2346
 21
-149.877
  0
LINE
  8
0
 10
-91.2346
 20
-149.877
 11
-91.2714
 21
-150.367
  0
LINE
  8
0
 10
-91.2714
 20
-150.367
 11
-91.4511
 21
-150.825
  0
LINE
  8
0
 10
-91.4511
 20
-150.825
 11
-91.7577
 21
-151.21
  0
LINE
  8
0
 10
-91.7577
 20
-151.21
 11
-92.1641
 21
-151.487
  0
LINE
  8
0
 10
-92.1641
 20
-151.487
 11
-92.6341
 21
-151.632
  0
LINE
  8
0
 10
-92.6341
 20
-151.632
 11
-93.1259
 21
-151.632
  0
LINE
  8
0
 10
-93.1259
 20
-151.632
 11
-93.5959
 21
-151.487
  0
LINE
  8
0
 10
-93.5959
 20
-151.487
 11
-94.0023
 21
-151.21
  0
LINE
  8
0
 10
-94.0023
 20
-151.21
 11
-94.3089
 21
-150.825
  0
LINE
  8
0
 10
-94.3089
 20
-150.825
 11
-94.4886
 21
-150.367
  0
LINE
  8
0
 10
-94.4886
 20
-150.367
 11
-94.5254
 21
-149.877
  0
LINE
  8
0
 10
-94.5254
 20
150.123
 11
-94.4159
 21
150.603
  0
LINE
  8
0
 10
-94.4159
 20
150.603
 11
-94.17
 21
151.029
  0
LINE
  8
0
 10
-94.17
 20
151.029
 11
-93.8095
 21
151.363
  0
LINE
  8
0
 10
-93.8095
 20
151.363
 11
-93.3663
 21
151.577
  0
LINE
  8
0
 10
-93.3663
 20
151.577
 11
-92.88
 21
151.65
  0
LINE
  8
0
 10
-92.88
 20
151.65
 11
-92.3937
 21
151.577
  0
LINE
  8
0
 10
-92.3937
 20
151.577
 11
-91.9505
 21
151.363
  0
LINE
  8
0
 10
-91.9505
 20
151.363
 11
-91.59
 21
151.029
  0
LINE
  8
0
 10
-91.59
 20
151.029
 11
-91.3441
 21
150.603
  0
LINE
  8
0
 10
-91.3441
 20
150.603
 11
-91.2346
 21
150.123
  0
LINE
  8
0
 10
-91.2346
 20
150.123
 11
-91.2714
 21
149.633
  0
LINE
  8
0
 10
-91.2714
 20
149.633
 11
-91.4511
 21
149.175
  0
LINE
  8
0
 10
-91.4511
 20
149.175
 11
-91.7577
 21
148.79
  0
LINE
  8
0
 10
-91.7577
 20
148.79
 11
-92.1641
 21
148.513
  0
LINE
  8
0
 10
-92.1641
 20
148.513
 11
-92.6341
 21
148.368
  0
LINE
  8
0
 10
-92.6341
 20
148.368
 11
-93.1259
 21
148.368
  0
LINE
  8
0
 10
-93.1259
 20
148.368
 11
-93.5959
 21
148.513
  0
LINE
  8
0
 10
-93.5959
 20
148.513
 11
-94.0023
 21
148.79
  0
LINE
  8
0
 10
-94.0023
 20
148.79
 11
-94.3089
 21
149.175
  0
LINE
  8
0
 10
-94.3089
 20
149.175
 11
-94.4886
 21
149.633
  0
LINE
  8
0
 10
-94.4886
 20
149.633
 11
-94.5254
 21
150.123
  0
LINE
  8
0
 10
-70.1254
 20
-149.877
 11
-70.0159
 21
-149.397
  0
LINE
  8
0
 10
-70.0159
 20
-149.397
 11
-69.77
 21
-148.971
  0
LINE
  8
0
 10
-69.77
 20
-148.971
 11
-69.4095
 21
-148.637
  0
LINE
  8
0
 10
-69.4095
 20
-148.637
 11
-68.9663
 21
-148.423
  0
LINE
  8
0
 10
-68.9663
 20
-148.423
 11
-68.48
 21
-148.35
  0
LINE
  8
0
 10
-68.48
 20
-148.35
 11
-67.9937
 21
-148.423
  0
LINE
  8
0
 10
-67.9937
 20
-148.423
 11
-67.5505
 21
-148.637
  0
LINE
  8
0
 10
-67.5505
 20
-148.637
 11
-67.19
 21
-148.971
  0
LINE
  8
0
 10
-67.19
 20
-148.971
 11
-66.9441
 21
-149.397
  0
LINE
  8
0
 10
-66.9441
 20
-149.397
 11
-66.8346
 21
-149.877
  0
LINE
  8
0
 10
-66.8346
 20
-149.877
 11
-66.8714
 21
-150.367
  0
LINE
  8
0
 10
-66.8714
 20
-150.367
 11
-67.0511
 21
-150.825
  0
LINE
  8
0
 10
-67.0511
 20
-150.825
 11
-67.3577
 21
-151.21
  0
LINE
  8
0
 10
-67.3577
 20
-151.21
 11
-67.7641
 21
-151.487
  0
LINE
  8
0
 10
-67.7641
 20
-151.487
 11
-68.2341
 21
-151.632
  0
LINE
  8
0
 10
-68.2341
 20
-151.632
 11
-68.7259
 21
-151.632
  0
LINE
  8
0
 10
-68.7259
 20
-151.632
 11
-69.1959
 21
-151.487
  0
LINE
  8
0
 10
-69.1959
 20
-151.487
 11
-69.6023
 21
-151.21
  0
LINE
  8
0
 10
-69.6023
 20
-151.21
 11
-69.9089
 21
-150.825
  0
LINE
  8
0
 10
-69.9089
 20
-150.825
 11
-70.0886
 21
-150.367
  0
LINE
  8
0
 10
-70.0886
 20
-150.367
 11
-70.1254
 21
-149.877
  0
LINE
  8
0
 10
-70.1254
 20
150.123
 11
-70.0159
 21
150.603
  0
LINE
  8
0
 10
-70.0159
 20
150.603
 11
-69.77
 21
151.029
  0
LINE
  8
0
 10
-69.77
 20
151.029
 11
-69.4095
 21
151.363
  0
LINE
  8
0
 10
-69.4095
 20
151.363
 11
-68.9663
 21
151.577
  0
LINE
  8
0
 10
-68.9663
 20
151.577
 11
-68.48
 21
151.65
  0
LINE
  8
0
 10
-68.48
 20
151.65
 11
-67.9937
 21
151.577
  0
LINE
  8
0
 10
-67.9937
 20
151.577
 11
-67.5505
 21
151.363
  0
LINE
  8
0
 10
-67.5505
 20
151.363
 11
-67.19
 21
151.029
  0
LINE
  8
0
 10
-67.19
 20
151.029
 11
-66.9441
 21
150.603
  0
LINE
  8
0
 10
-66.9441
 20
150.603
 11
-66.8346
 21
150.123
  0
LINE
  8
0
 10
-66.8346
 20
150.123
 11
-66.8714
 21
149.633
  0
LINE
  8
0
 10
-66.8714
 20
149.633
 11
-67.0511
 21
149.175
  0
LINE
  8
0
 10
-67.0511
 20
149.175
 11
-67.3577
 21
148.79
  0
LINE
  8
0
 10
-67.3577
 20
148.79
 11
-67.7641
 21
148.513
  0
LINE
  8
0
 10
-67.7641
 20
148.513
 11
-68.2341
 21
148.368
  0
LINE
  8
0
 10
-68.2341
 20
148.368
 11
-68.7259
 21
148.368
  0
LINE
  8
0
 10
-68.7259
 20
148.368
 11
-69.1959
 21
148.513
  0
LINE
  8
0
 10
-69.1959
 20
148.513
 11
-69.6023
 21
148.79
  0
LINE
  8
0
 10
-69.6023
 20
148.79
 11
-69.9089
 21
149.175
  0
LINE
  8
0
 10
-69.9089
 20
149.175
 11
-70.0886
 21
149.633
  0
LINE
  8
0
 10
-70.0886
 20
149.633
 11
-70.1254
 21
150.123
  0
LINE
  8
0
 10
-52.1554
 20
135.323
 11
-52.1554
 21
145.323
  0
LINE
  8
0
 10
-52.1554
 20
145.323
 11
-52.0459
 21
145.803
  0
LINE
  8
0
 10
-52.0459
 20
145.803
 11
-51.8
 21
146.229
  0
LINE
  8
0
 10
-51.8
 20
146.229
 11
-51.4395
 21
146.563
  0
LINE
  8
0
 10
-51.4395
 20
146.563
 11
-50.9963
 21
146.777
  0
LINE
  8
0
 10
-50.9963
 20
146.777
 11
-50.51
 21
146.85
  0
LINE
  8
0
 10
-50.51
 20
146.85
 11
-50.0237
 21
146.777
  0
LINE
  8
0
 10
-50.0237
 20
146.777
 11
-49.5805
 21
146.563
  0
LINE
  8
0
 10
-49.5805
 20
146.563
 11
-49.22
 21
146.229
  0
LINE
  8
0
 10
-49.22
 20
146.229
 11
-48.9741
 21
145.803
  0
LINE
  8
0
 10
-48.9741
 20
145.803
 11
-48.8646
 21
145.323
  0
LINE
  8
0
 10
-48.8646
 20
145.323
 11
-48.8646
 21
135.323
  0
LINE
  8
0
 10
-48.8646
 20
135.323
 11
-48.9014
 21
134.833
  0
LINE
  8
0
 10
-48.9014
 20
134.833
 11
-49.0811
 21
134.375
  0
LINE
  8
0
 10
-49.0811
 20
134.375
 11
-49.3877
 21
133.99
  0
LINE
  8
0
 10
-49.3877
 20
133.99
 11
-49.7941
 21
133.713
  0
LINE
  8
0
 10
-49.7941
 20
133.713
 11
-50.2641
 21
133.568
  0
LINE
  8
0
 10
-50.2641
 20
133.568
 11
-50.7559
 21
133.568
  0
LINE
  8
0
 10
-50.7559
 20
133.568
 11
-51.2259
 21
133.713
  0
LINE
  8
0
 10
-51.2259
 20
133.713
 11
-51.6323
 21
133.99
  0
LINE
  8
0
 10
-51.6323
 20
133.99
 11
-51.9389
 21
134.375
  0
LINE
  8
0
 10
-51.9389
 20
134.375
 11
-52.1186
 21
134.833
  0
LINE
  8
0
 10
-52.1186
 20
134.833
 11
-52.1554
 21
135.323
  0
LINE
  8
0
 10
-41.2916
 20
69.4541
 11
-41.2916
 21
69.9459
  0
LINE
  8
0
 10
-41.2916
 20
69.9459
 11
-41.1466
 21
70.4159
  0
LINE
  8
0
 10
-41.1466
 20
70.4159
 11
-40.8695
 21
70.8223
  0
LINE
  8
0
 10
-40.8695
 20
70.8223
 11
-40.485
 21
71.1289
  0
LINE
  8
0
 10
-40.485
 20
71.1289
 11
-40.0272
 21
71.3086
  0
LINE
  8
0
 10
-40.0272
 20
71.3086
 11
-39.5367
 21
71.3454
  0
LINE
  8
0
 10
-39.5367
 20
71.3454
 11
-39.0572
 21
71.2359
  0
LINE
  8
0
 10
-39.0572
 20
71.2359
 11
-38.6312
 21
70.99
  0
LINE
  8
0
 10
-38.6312
 20
70.99
 11
-38.2967
 21
70.6295
  0
LINE
  8
0
 10
-38.2967
 20
70.6295
 11
-38.0833
 21
70.1863
  0
LINE
  8
0
 10
-38.0833
 20
70.1863
 11
-38.01
 21
69.7
  0
LINE
  8
0
 10
-38.01
 20
69.7
 11
-38.0833
 21
69.2137
  0
LINE
  8
0
 10
-38.0833
 20
69.2137
 11
-38.2967
 21
68.7705
  0
LINE
  8
0
 10
-38.2967
 20
68.7705
 11
-38.6312
 21
68.41
  0
LINE
  8
0
 10
-38.6312
 20
68.41
 11
-39.0572
 21
68.1641
  0
LINE
  8
0
 10
-39.0572
 20
68.1641
 11
-39.5367
 21
68.0546
  0
LINE
  8
0
 10
-39.5367
 20
68.0546
 11
-40.0272
 21
68.0914
  0
LINE
  8
0
 10
-40.0272
 20
68.0914
 11
-40.485
 21
68.2711
  0
LINE
  8
0
 10
-40.485
 20
68.2711
 11
-40.8695
 21
68.5777
  0
LINE
  8
0
 10
-40.8695
 20
68.5777
 11
-41.1466
 21
68.9841
  0
LINE
  8
0
 10
-41.1466
 20
68.9841
 11
-41.2916
 21
69.4541
  0
LINE
  8
0
 10
-34.6554
 20
-150.323
 11
-34.6186
 21
-149.833
  0
LINE
  8
0
 10
-34.6186
 20
-149.833
 11
-34.4389
 21
-149.375
  0
LINE
  8
0
 10
-34.4389
 20
-149.375
 11
-34.1323
 21
-148.99
  0
LINE
  8
0
 10
-34.1323
 20
-148.99
 11
-33.7259
 21
-148.713
  0
LINE
  8
0
 10
-33.7259
 20
-148.713
 11
-33.2559
 21
-148.568
  0
LINE
  8
0
 10
-33.2559
 20
-148.568
 11
-32.7641
 21
-148.568
  0
LINE
  8
0
 10
-32.7641
 20
-148.568
 11
-32.2941
 21
-148.713
  0
LINE
  8
0
 10
-32.2941
 20
-148.713
 11
-31.8877
 21
-148.99
  0
LINE
  8
0
 10
-31.8877
 20
-148.99
 11
-31.5811
 21
-149.375
  0
LINE
  8
0
 10
-31.5811
 20
-149.375
 11
-31.4014
 21
-149.833
  0
LINE
  8
0
 10
-31.4014
 20
-149.833
 11
-31.3646
 21
-150.323
  0
LINE
  8
0
 10
-31.3646
 20
-150.323
 11
-31.4741
 21
-150.803
  0
LINE
  8
0
 10
-31.4741
 20
-150.803
 11
-31.72
 21
-151.229
  0
LINE
  8
0
 10
-31.72
 20
-151.229
 11
-32.0805
 21
-151.563
  0
LINE
  8
0
 10
-32.0805
 20
-151.563
 11
-32.5237
 21
-151.777
  0
LINE
  8
0
 10
-32.5237
 20
-151.777
 11
-33.01
 21
-151.85
  0
LINE
  8
0
 10
-33.01
 20
-151.85
 11
-33.4963
 21
-151.777
  0
LINE
  8
0
 10
-33.4963
 20
-151.777
 11
-33.9395
 21
-151.563
  0
LINE
  8
0
 10
-33.9395
 20
-151.563
 11
-34.3
 21
-151.229
  0
LINE
  8
0
 10
-34.3
 20
-151.229
 11
-34.5459
 21
-150.803
  0
LINE
  8
0
 10
-34.5459
 20
-150.803
 11
-34.6554
 21
-150.323
  0
LINE
  8
0
 10
-34.6554
 20
-97.9233
 11
-34.6186
 21
-97.4328
  0
LINE
  8
0
 10
-34.6186
 20
-97.4328
 11
-34.4389
 21
-96.975
  0
LINE
  8
0
 10
-34.4389
 20
-96.975
 11
-34.1323
 21
-96.5905
  0
LINE
  8
0
 10
-34.1323
 20
-96.5905
 11
-33.7259
 21
-96.3134
  0
LINE
  8
0
 10
-33.7259
 20
-96.3134
 11
-33.2559
 21
-96.1684
  0
LINE
  8
0
 10
-33.2559
 20
-96.1684
 11
-32.7641
 21
-96.1684
  0
LINE
  8
0
 10
-32.7641
 20
-96.1684
 11
-32.2941
 21
-96.3134
  0
LINE
  8
0
 10
-32.2941
 20
-96.3134
 11
-31.8877
 21
-96.5905
  0
LINE
  8
0
 10
-31.8877
 20
-96.5905
 11
-31.5811
 21
-96.975
  0
LINE
  8
0
 10
-31.5811
 20
-96.975
 11
-31.4014
 21
-97.4328
  0
LINE
  8
0
 10
-31.4014
 20
-97.4328
 11
-31.3646
 21
-97.9233
  0
LINE
  8
0
 10
-31.3646
 20
-97.9233
 11
-31.4741
 21
-98.4028
  0
LINE
  8
0
 10
-31.4741
 20
-98.4028
 11
-31.72
 21
-98.8288
  0
LINE
  8
0
 10
-31.72
 20
-98.8288
 11
-32.0805
 21
-99.1633
  0
LINE
  8
0
 10
-32.0805
 20
-99.1633
 11
-32.5237
 21
-99.3767
  0
LINE
  8
0
 10
-32.5237
 20
-99.3767
 11
-33.01
 21
-99.45
  0
LINE
  8
0
 10
-33.01
 20
-99.45
 11
-33.4963
 21
-99.3767
  0
LINE
  8
0
 10
-33.4963
 20
-99.3767
 11
-33.9395
 21
-99.1633
  0
LINE
  8
0
 10
-33.9395
 20
-99.1633
 11
-34.3
 21
-98.8288
  0
LINE
  8
0
 10
-34.3
 20
-98.8288
 11
-34.5459
 21
-98.4028
  0
LINE
  8
0
 10
-34.5459
 20
-98.4028
 11
-34.6554
 21
-97.9233
  0
LINE
  8
0
 10
-9.65539
 20
-150.323
 11
-9.61863
 21
-149.833
  0
LINE
  8
0
 10
-9.61863
 20
-149.833
 11
-9.43894
 21
-149.375
  0
LINE
  8
0
 10
-9.43894
 20
-149.375
 11
-9.13229
 21
-148.99
  0
LINE
  8
0
 10
-9.13229
 20
-148.99
 11
-8.72591
 21
-148.713
  0
LINE
  8
0
 10
-8.72591
 20
-148.713
 11
-8.25592
 21
-148.568
  0
LINE
  8
0
 10
-8.25592
 20
-148.568
 11
-7.76408
 21
-148.568
  0
LINE
  8
0
 10
-7.76408
 20
-148.568
 11
-7.29409
 21
-148.713
  0
LINE
  8
0
 10
-7.29409
 20
-148.713
 11
-6.88772
 21
-148.99
  0
LINE
  8
0
 10
-6.88772
 20
-148.99
 11
-6.58106
 21
-149.375
  0
LINE
  8
0
 10
-6.58106
 20
-149.375
 11
-6.40137
 21
-149.833
  0
LINE
  8
0
 10
-6.40137
 20
-149.833
 11
-6.36461
 21
-150.323
  0
LINE
  8
0
 10
-6.36461
 20
-150.323
 11
-6.47406
 21
-150.803
  0
LINE
  8
0
 10
-6.47406
 20
-150.803
 11
-6.71998
 21
-151.229
  0
LINE
  8
0
 10
-6.71998
 20
-151.229
 11
-7.08052
 21
-151.563
  0
LINE
  8
0
 10
-7.08052
 20
-151.563
 11
-7.52365
 21
-151.777
  0
LINE
  8
0
 10
-7.52365
 20
-151.777
 11
-8.01
 21
-151.85
  0
LINE
  8
0
 10
-8.01
 20
-151.85
 11
-8.49635
 21
-151.777
  0
LINE
  8
0
 10
-8.49635
 20
-151.777
 11
-8.93948
 21
-151.563
  0
LINE
  8
0
 10
-8.93948
 20
-151.563
 11
-9.30002
 21
-151.229
  0
LINE
  8
0
 10
-9.30002
 20
-151.229
 11
-9.54594
 21
-150.803
  0
LINE
  8
0
 10
-9.54594
 20
-150.803
 11
-9.65539
 21
-150.323
  0
LINE
  8
0
 10
-9.65539
 20
-97.9233
 11
-9.61863
 21
-97.4328
  0
LINE
  8
0
 10
-9.61863
 20
-97.4328
 11
-9.43894
 21
-96.975
  0
LINE
  8
0
 10
-9.43894
 20
-96.975
 11
-9.13229
 21
-96.5905
  0
LINE
  8
0
 10
-9.13229
 20
-96.5905
 11
-8.72591
 21
-96.3134
  0
LINE
  8
0
 10
-8.72591
 20
-96.3134
 11
-8.25592
 21
-96.1684
  0
LINE
  8
0
 10
-8.25592
 20
-96.1684
 11
-7.76408
 21
-96.1684
  0
LINE
  8
0
 10
-7.76408
 20
-96.1684
 11
-7.29409
 21
-96.3134
  0
LINE
  8
0
 10
-7.29409
 20
-96.3134
 11
-6.88772
 21
-96.5905
  0
LINE
  8
0
 10
-6.88772
 20
-96.5905
 11
-6.58106
 21
-96.975
  0
LINE
  8
0
 10
-6.58106
 20
-96.975
 11
-6.40137
 21
-97.4328
  0
LINE
  8
0
 10
-6.40137
 20
-97.4328
 11
-6.36461
 21
-97.9233
  0
LINE
  8
0
 10
-6.36461
 20
-97.9233
 11
-6.47406
 21
-98.4028
  0
LINE
  8
0
 10
-6.47406
 20
-98.4028
 11
-6.71998
 21
-98.8288
  0
LINE
  8
0
 10
-6.71998
 20
-98.8288
 11
-7.08052
 21
-99.1633
  0
LINE
  8
0
 10
-7.08052
 20
-99.1633
 11
-7.52365
 21
-99.3767
  0
LINE
  8
0
 10
-7.52365
 20
-99.3767
 11
-8.01
 21
-99.45
  0
LINE
  8
0
 10
-8.01
 20
-99.45
 11
-8.49635
 21
-99.3767
  0
LINE
  8
0
 10
-8.49635
 20
-99.3767
 11
-8.93948
 21
-99.1633
  0
LINE
  8
0
 10
-8.93948
 20
-99.1633
 11
-9.30002
 21
-98.8288
  0
LINE
  8
0
 10
-9.30002
 20
-98.8288
 11
-9.54594
 21
-98.4028
  0
LINE
  8
0
 10
-9.54594
 20
-98.4028
 11
-9.65539
 21
-97.9233
  0
LINE
  8
0
 10
-6.01
 20
-124
 11
-5.96196
 21
-123.512
  0
LINE
  8
0
 10
-5.96196
 20
-123.512
 11
-5.8197
 21
-123.043
  0
LINE
  8
0
 10
-5.8197
 20
-123.043
 11
-5.58867
 21
-122.611
  0
LINE
  8
0
 10
-5.58867
 20
-122.611
 11
-5.27777
 21
-122.232
  0
LINE
  8
0
 10
-5.27777
 20
-122.232
 11
-4.89892
 21
-121.921
  0
LINE
  8
0
 10
-4.89892
 20
-121.921
 11
-4.46671
 21
-121.69
  0
LINE
  8
0
 10
-4.46671
 20
-121.69
 11
-3.99773
 21
-121.548
  0
LINE
  8
0
 10
-3.99773
 20
-121.548
 11
-3.51
 21
-121.5
  0
LINE
  8
0
 10
-3.51
 20
-121.5
 11
-3.02227
 21
-121.548
  0
LINE
  8
0
 10
-3.02227
 20
-121.548
 11
-2.55329
 21
-121.69
  0
LINE
  8
0
 10
-2.55329
 20
-121.69
 11
-2.12107
 21
-121.921
  0
LINE
  8
0
 10
-2.12107
 20
-121.921
 11
-1.74223
 21
-122.232
  0
LINE
  8
0
 10
-1.74223
 20
-122.232
 11
-1.43133
 21
-122.611
  0
LINE
  8
0
 10
-1.43133
 20
-122.611
 11
-1.2003
 21
-123.043
  0
LINE
  8
0
 10
-1.2003
 20
-123.043
 11
-1.05804
 21
-123.512
  0
LINE
  8
0
 10
-1.05804
 20
-123.512
 11
-1.01
 21
-124
  0
LINE
  8
0
 10
-1.01
 20
-124
 11
-1.05804
 21
-124.488
  0
LINE
  8
0
 10
-1.05804
 20
-124.488
 11
-1.2003
 21
-124.957
  0
LINE
  8
0
 10
-1.2003
 20
-124.957
 11
-1.43133
 21
-125.389
  0
LINE
  8
0
 10
-1.43133
 20
-125.389
 11
-1.74223
 21
-125.768
  0
LINE
  8
0
 10
-1.74223
 20
-125.768
 11
-2.12107
 21
-126.079
  0
LINE
  8
0
 10
-2.12107
 20
-126.079
 11
-2.55329
 21
-126.31
  0
LINE
  8
0
 10
-2.55329
 20
-126.31
 11
-3.02227
 21
-126.452
  0
LINE
  8
0
 10
-3.02227
 20
-126.452
 11
-3.51
 21
-126.5
  0
LINE
  8
0
 10
-3.51
 20
-126.5
 11
-3.99773
 21
-126.452
  0
LINE
  8
0
 10
-3.99773
 20
-126.452
 11
-4.46671
 21
-126.31
  0
LINE
  8
0
 10
-4.46671
 20
-126.31
 11
-4.89892
 21
-126.079
  0
LINE
  8
0
 10
-4.89892
 20
-126.079
 11
-5.27777
 21
-125.768
  0
LINE
  8
0
 10
-5.27777
 20
-125.768
 11
-5.58867
 21
-125.389
  0
LINE
  8
0
 10
-5.58867
 20
-125.389
 11
-5.8197
 21
-124.957
  0
LINE
  8
0
 10
-5.8197
 20
-124.957
 11
-5.96196
 21
-124.488
  0
LINE
  8
0
 10
-5.96196
 20
-124.488
 11
-6.01
 21
-124
  0
LINE
  8
0
 10
0.028429
 20
69.4541
 11
0.028429
 21
69.9459
  0
LINE
  8
0
 10
0.028429
 20
69.9459
 11
0.173401
 21
70.4159
  0
LINE
  8
0
 10
0.173401
 20
70.4159
 11
0.450464
 21
70.8223
  0
LINE
  8
0
 10
0.450464
 20
70.8223
 11
0.834999
 21
71.1289
  0
LINE
  8
0
 10
0.834999
 20
71.1289
 11
1.29284
 21
71.3086
  0
LINE
  8
0
 10
1.29284
 20
71.3086
 11
1.7833
 21
71.3454
  0
LINE
  8
0
 10
1.7833
 20
71.3454
 11
2.26281
 21
71.2359
  0
LINE
  8
0
 10
2.26281
 20
71.2359
 11
2.68876
 21
70.99
  0
LINE
  8
0
 10
2.68876
 20
70.99
 11
3.02329
 21
70.6295
  0
LINE
  8
0
 10
3.02329
 20
70.6295
 11
3.23669
 21
70.1863
  0
LINE
  8
0
 10
3.23669
 20
70.1863
 11
3.31
 21
69.7
  0
LINE
  8
0
 10
3.31
 20
69.7
 11
3.23669
 21
69.2137
  0
LINE
  8
0
 10
3.23669
 20
69.2137
 11
3.02329
 21
68.7705
  0
LINE
  8
0
 10
3.02329
 20
68.7705
 11
2.68876
 21
68.41
  0
LINE
  8
0
 10
2.68876
 20
68.41
 11
2.26281
 21
68.1641
  0
LINE
  8
0
 10
2.26281
 20
68.1641
 11
1.7833
 21
68.0546
  0
LINE
  8
0
 10
1.7833
 20
68.0546
 11
1.29284
 21
68.0914
  0
LINE
  8
0
 10
1.29284
 20
68.0914
 11
0.834999
 21
68.2711
  0
LINE
  8
0
 10
0.834999
 20
68.2711
 11
0.450464
 21
68.5777
  0
LINE
  8
0
 10
0.450464
 20
68.5777
 11
0.173401
 21
68.9841
  0
LINE
  8
0
 10
0.173401
 20
68.9841
 11
0.028429
 21
69.4541
  0
LINE
  8
0
 10
16.0051
 20
99.8761
 11
16.0459
 21
100.368
  0
LINE
  8
0
 10
16.0459
 20
100.368
 11
16.2443
 21
100.82
  0
LINE
  8
0
 10
16.2443
 20
100.82
 11
16.5787
 21
101.184
  0
LINE
  8
0
 10
16.5787
 20
101.184
 11
17.013
 21
101.419
  0
LINE
  8
0
 10
17.013
 20
101.419
 11
17.5
 21
101.5
  0
LINE
  8
0
 10
17.5
 20
101.5
 11
17.9871
 21
101.419
  0
LINE
  8
0
 10
17.9871
 20
101.419
 11
18.4213
 21
101.184
  0
LINE
  8
0
 10
18.4213
 20
101.184
 11
18.7558
 21
100.82
  0
LINE
  8
0
 10
18.7558
 20
100.82
 11
18.9541
 21
100.368
  0
LINE
  8
0
 10
18.9541
 20
100.368
 11
18.9949
 21
99.8761
  0
LINE
  8
0
 10
18.9949
 20
99.8761
 11
18.8737
 21
99.3975
  0
LINE
  8
0
 10
18.8737
 20
99.3975
 11
18.6036
 21
98.9841
  0
LINE
  8
0
 10
18.6036
 20
98.9841
 11
18.2139
 21
98.6808
  0
LINE
  8
0
 10
18.2139
 20
98.6808
 11
17.7469
 21
98.5205
  0
LINE
  8
0
 10
17.7469
 20
98.5205
 11
17.2531
 21
98.5205
  0
LINE
  8
0
 10
17.2531
 20
98.5205
 11
16.7861
 21
98.6808
  0
LINE
  8
0
 10
16.7861
 20
98.6808
 11
16.3964
 21
98.9841
  0
LINE
  8
0
 10
16.3964
 20
98.9841
 11
16.1263
 21
99.3975
  0
LINE
  8
0
 10
16.1263
 20
99.3975
 11
16.0051
 21
99.8761
  0
LINE
  8
0
 10
16.0051
 20
105.676
 11
16.0459
 21
106.168
  0
LINE
  8
0
 10
16.0459
 20
106.168
 11
16.2443
 21
106.62
  0
LINE
  8
0
 10
16.2443
 20
106.62
 11
16.5787
 21
106.984
  0
LINE
  8
0
 10
16.5787
 20
106.984
 11
17.013
 21
107.219
  0
LINE
  8
0
 10
17.013
 20
107.219
 11
17.5
 21
107.3
  0
LINE
  8
0
 10
17.5
 20
107.3
 11
17.9871
 21
107.219
  0
LINE
  8
0
 10
17.9871
 20
107.219
 11
18.4213
 21
106.984
  0
LINE
  8
0
 10
18.4213
 20
106.984
 11
18.7558
 21
106.62
  0
LINE
  8
0
 10
18.7558
 20
106.62
 11
18.9541
 21
106.168
  0
LINE
  8
0
 10
18.9541
 20
106.168
 11
18.9949
 21
105.676
  0
LINE
  8
0
 10
18.9949
 20
105.676
 11
18.8737
 21
105.197
  0
LINE
  8
0
 10
18.8737
 20
105.197
 11
18.6036
 21
104.784
  0
LINE
  8
0
 10
18.6036
 20
104.784
 11
18.2139
 21
104.481
  0
LINE
  8
0
 10
18.2139
 20
104.481
 11
17.7469
 21
104.32
  0
LINE
  8
0
 10
17.7469
 20
104.32
 11
17.2531
 21
104.32
  0
LINE
  8
0
 10
17.2531
 20
104.32
 11
16.7861
 21
104.481
  0
LINE
  8
0
 10
16.7861
 20
104.481
 11
16.3964
 21
104.784
  0
LINE
  8
0
 10
16.3964
 20
104.784
 11
16.1263
 21
105.197
  0
LINE
  8
0
 10
16.1263
 20
105.197
 11
16.0051
 21
105.676
  0
LINE
  8
0
 10
21.0051
 20
110.224
 11
21.1263
 21
110.703
  0
LINE
  8
0
 10
21.1263
 20
110.703
 11
21.3964
 21
111.116
  0
LINE
  8
0
 10
21.3964
 20
111.116
 11
21.7861
 21
111.419
  0
LINE
  8
0
 10
21.7861
 20
111.419
 11
22.2531
 21
111.58
  0
LINE
  8
0
 10
22.2531
 20
111.58
 11
22.7469
 21
111.58
  0
LINE
  8
0
 10
22.7469
 20
111.58
 11
23.2139
 21
111.419
  0
LINE
  8
0
 10
23.2139
 20
111.419
 11
23.6036
 21
111.116
  0
LINE
  8
0
 10
23.6036
 20
111.116
 11
23.8737
 21
110.703
  0
LINE
  8
0
 10
23.8737
 20
110.703
 11
23.9949
 21
110.224
  0
LINE
  8
0
 10
23.9949
 20
110.224
 11
23.9541
 21
109.732
  0
LINE
  8
0
 10
23.9541
 20
109.732
 11
23.7557
 21
109.28
  0
LINE
  8
0
 10
23.7557
 20
109.28
 11
23.4213
 21
108.916
  0
LINE
  8
0
 10
23.4213
 20
108.916
 11
22.987
 21
108.681
  0
LINE
  8
0
 10
22.987
 20
108.681
 11
22.5
 21
108.6
  0
LINE
  8
0
 10
22.5
 20
108.6
 11
22.0129
 21
108.681
  0
LINE
  8
0
 10
22.0129
 20
108.681
 11
21.5787
 21
108.916
  0
LINE
  8
0
 10
21.5787
 20
108.916
 11
21.2442
 21
109.28
  0
LINE
  8
0
 10
21.2442
 20
109.28
 11
21.0459
 21
109.732
  0
LINE
  8
0
 10
21.0459
 20
109.732
 11
21.0051
 21
110.224
  0
LINE
  8
0
 10
21.0051
 20
118.824
 11
21.1263
 21
119.303
  0
LINE
  8
0
 10
21.1263
 20
119.303
 11
21.3964
 21
119.716
  0
LINE
  8
0
 10
21.3964
 20
119.716
 11
21.7861
 21
120.019
  0
LINE
  8
0
 10
21.7861
 20
120.019
 11
22.2531
 21
120.18
  0
LINE
  8
0
 10
22.2531
 20
120.18
 11
22.7469
 21
120.18
  0
LINE
  8
0
 10
22.7469
 20
120.18
 11
23.2139
 21
120.019
  0
LINE
  8
0
 10
23.2139
 20
120.019
 11
23.6036
 21
119.716
  0
LINE
  8
0
 10
23.6036
 20
119.716
 11
23.8737
 21
119.303
  0
LINE
  8
0
 10
23.8737
 20
119.303
 11
23.9949
 21
118.824
  0
LINE
  8
0
 10
23.9949
 20
118.824
 11
23.9541
 21
118.332
  0
LINE
  8
0
 10
23.9541
 20
118.332
 11
23.7557
 21
117.88
  0
LINE
  8
0
 10
23.7557
 20
117.88
 11
23.4213
 21
117.516
  0
LINE
  8
0
 10
23.4213
 20
117.516
 11
22.987
 21
117.281
  0
LINE
  8
0
 10
22.987
 20
117.281
 11
22.5
 21
117.2
  0
LINE
  8
0
 10
22.5
 20
117.2
 11
22.0129
 21
117.281
  0
LINE
  8
0
 10
22.0129
 20
117.281
 11
21.5787
 21
117.516
  0
LINE
  8
0
 10
21.5787
 20
117.516
 11
21.2442
 21
117.88
  0
LINE
  8
0
 10
21.2442
 20
117.88
 11
21.0459
 21
118.332
  0
LINE
  8
0
 10
21.0459
 20
118.332
 11
21.0051
 21
118.824
  0
LINE
  8
0
 10
28.8346
 20
-104.623
 11
28.8714
 21
-104.133
  0
LINE
  8
0
 10
28.8714
 20
-104.133
 11
29.0511
 21
-103.675
  0
LINE
  8
0
 10
29.0511
 20
-103.675
 11
29.3577
 21
-103.29
  0
LINE
  8
0
 10
29.3577
 20
-103.29
 11
29.7641
 21
-103.013
  0
LINE
  8
0
 10
29.7641
 20
-103.013
 11
30.2341
 21
-102.868
  0
LINE
  8
0
 10
30.2341
 20
-102.868
 11
30.7259
 21
-102.868
  0
LINE
  8
0
 10
30.7259
 20
-102.868
 11
31.1959
 21
-103.013
  0
LINE
  8
0
 10
31.1959
 20
-103.013
 11
31.6023
 21
-103.29
  0
LINE
  8
0
 10
31.6023
 20
-103.29
 11
31.9089
 21
-103.675
  0
LINE
  8
0
 10
31.9089
 20
-103.675
 11
32.0886
 21
-104.133
  0
LINE
  8
0
 10
32.0886
 20
-104.133
 11
32.1254
 21
-104.623
  0
LINE
  8
0
 10
32.1254
 20
-104.623
 11
32.0159
 21
-105.103
  0
LINE
  8
0
 10
32.0159
 20
-105.103
 11
31.77
 21
-105.529
  0
LINE
  8
0
 10
31.77
 20
-105.529
 11
31.4095
 21
-105.863
  0
LINE
  8
0
 10
31.4095
 20
-105.863
 11
30.9663
 21
-106.077
  0
LINE
  8
0
 10
30.9663
 20
-106.077
 11
30.48
 21
-106.15
  0
LINE
  8
0
 10
30.48
 20
-106.15
 11
29.9937
 21
-106.077
  0
LINE
  8
0
 10
29.9937
 20
-106.077
 11
29.5505
 21
-105.863
  0
LINE
  8
0
 10
29.5505
 20
-105.863
 11
29.19
 21
-105.529
  0
LINE
  8
0
 10
29.19
 20
-105.529
 11
28.9441
 21
-105.103
  0
LINE
  8
0
 10
28.9441
 20
-105.103
 11
28.8346
 21
-104.623
  0
LINE
  8
0
 10
28.8346
 20
93.3767
 11
28.8714
 21
93.8672
  0
LINE
  8
0
 10
28.8714
 20
93.8672
 11
29.0511
 21
94.325
  0
LINE
  8
0
 10
29.0511
 20
94.325
 11
29.3577
 21
94.7095
  0
LINE
  8
0
 10
29.3577
 20
94.7095
 11
29.7641
 21
94.9866
  0
LINE
  8
0
 10
29.7641
 20
94.9866
 11
30.2341
 21
95.1316
  0
LINE
  8
0
 10
30.2341
 20
95.1316
 11
30.7259
 21
95.1316
  0
LINE
  8
0
 10
30.7259
 20
95.1316
 11
31.1959
 21
94.9866
  0
LINE
  8
0
 10
31.1959
 20
94.9866
 11
31.6023
 21
94.7095
  0
LINE
  8
0
 10
31.6023
 20
94.7095
 11
31.9089
 21
94.325
  0
LINE
  8
0
 10
31.9089
 20
94.325
 11
32.0886
 21
93.8672
  0
LINE
  8
0
 10
32.0886
 20
93.8672
 11
32.1254
 21
93.3767
  0
LINE
  8
0
 10
32.1254
 20
93.3767
 11
32.0159
 21
92.8972
  0
LINE
  8
0
 10
32.0159
 20
92.8972
 11
31.77
 21
92.4712
  0
LINE
  8
0
 10
31.77
 20
92.4712
 11
31.4095
 21
92.1367
  0
LINE
  8
0
 10
31.4095
 20
92.1367
 11
30.9663
 21
91.9233
  0
LINE
  8
0
 10
30.9663
 20
91.9233
 11
30.48
 21
91.85
  0
LINE
  8
0
 10
30.48
 20
91.85
 11
29.9937
 21
91.9233
  0
LINE
  8
0
 10
29.9937
 20
91.9233
 11
29.5505
 21
92.1367
  0
LINE
  8
0
 10
29.5505
 20
92.1367
 11
29.19
 21
92.4712
  0
LINE
  8
0
 10
29.19
 20
92.4712
 11
28.9441
 21
92.8972
  0
LINE
  8
0
 10
28.9441
 20
92.8972
 11
28.8346
 21
93.3767
  0
LINE
  8
0
 10
47.1205
 20
-82.2469
 11
47.1205
 21
-81.7531
  0
LINE
  8
0
 10
47.1205
 20
-81.7531
 11
47.2808
 21
-81.2861
  0
LINE
  8
0
 10
47.2808
 20
-81.2861
 11
47.5841
 21
-80.8964
  0
LINE
  8
0
 10
47.5841
 20
-80.8964
 11
47.9975
 21
-80.6263
  0
LINE
  8
0
 10
47.9975
 20
-80.6263
 11
48.4761
 21
-80.5051
  0
LINE
  8
0
 10
48.4761
 20
-80.5051
 11
48.9682
 21
-80.5459
  0
LINE
  8
0
 10
48.9682
 20
-80.5459
 11
49.4204
 21
-80.7443
  0
LINE
  8
0
 10
49.4204
 20
-80.7443
 11
49.7837
 21
-81.0787
  0
LINE
  8
0
 10
49.7837
 20
-81.0787
 11
50.0187
 21
-81.513
  0
LINE
  8
0
 10
50.0187
 20
-81.513
 11
50.1
 21
-82
  0
LINE
  8
0
 10
50.1
 20
-82
 11
50.0187
 21
-82.4871
  0
LINE
  8
0
 10
50.0187
 20
-82.4871
 11
49.7837
 21
-82.9213
  0
LINE
  8
0
 10
49.7837
 20
-82.9213
 11
49.4204
 21
-83.2558
  0
LINE
  8
0
 10
49.4204
 20
-83.2558
 11
48.9682
 21
-83.4541
  0
LINE
  8
0
 10
48.9682
 20
-83.4541
 11
48.4761
 21
-83.4949
  0
LINE
  8
0
 10
48.4761
 20
-83.4949
 11
47.9975
 21
-83.3737
  0
LINE
  8
0
 10
47.9975
 20
-83.3737
 11
47.5841
 21
-83.1036
  0
LINE
  8
0
 10
47.5841
 20
-83.1036
 11
47.2808
 21
-82.7139
  0
LINE
  8
0
 10
47.2808
 20
-82.7139
 11
47.1205
 21
-82.2469
  0
LINE
  8
0
 10
47.1205
 20
45.1731
 11
47.1205
 21
45.6669
  0
LINE
  8
0
 10
47.1205
 20
45.6669
 11
47.2808
 21
46.1339
  0
LINE
  8
0
 10
47.2808
 20
46.1339
 11
47.5841
 21
46.5236
  0
LINE
  8
0
 10
47.5841
 20
46.5236
 11
47.9975
 21
46.7937
  0
LINE
  8
0
 10
47.9975
 20
46.7937
 11
48.4761
 21
46.9149
  0
LINE
  8
0
 10
48.4761
 20
46.9149
 11
48.9682
 21
46.8741
  0
LINE
  8
0
 10
48.9682
 20
46.8741
 11
49.4204
 21
46.6757
  0
LINE
  8
0
 10
49.4204
 20
46.6757
 11
49.7837
 21
46.3413
  0
LINE
  8
0
 10
49.7837
 20
46.3413
 11
50.0187
 21
45.907
  0
LINE
  8
0
 10
50.0187
 20
45.907
 11
50.1
 21
45.42
  0
LINE
  8
0
 10
50.1
 20
45.42
 11
50.0187
 21
44.9329
  0
LINE
  8
0
 10
50.0187
 20
44.9329
 11
49.7837
 21
44.4987
  0
LINE
  8
0
 10
49.7837
 20
44.4987
 11
49.4204
 21
44.1642
  0
LINE
  8
0
 10
49.4204
 20
44.1642
 11
48.9682
 21
43.9659
  0
LINE
  8
0
 10
48.9682
 20
43.9659
 11
48.4761
 21
43.9251
  0
LINE
  8
0
 10
48.4761
 20
43.9251
 11
47.9975
 21
44.0463
  0
LINE
  8
0
 10
47.9975
 20
44.0463
 11
47.5841
 21
44.3164
  0
LINE
  8
0
 10
47.5841
 20
44.3164
 11
47.2808
 21
44.7061
  0
LINE
  8
0
 10
47.2808
 20
44.7061
 11
47.1205
 21
45.1731
  0
LINE
  8
0
 10
49.5
 20
-89.5
 11
49.5581
 21
-89.0214
  0
LINE
  8
0
 10
49.5581
 20
-89.0214
 11
49.7291
 21
-88.5706
  0
LINE
  8
0
 10
49.7291
 20
-88.5706
 11
50.003
 21
-88.1738
  0
LINE
  8
0
 10
50.003
 20
-88.1738
 11
50.3639
 21
-87.854
  0
LINE
  8
0
 10
50.3639
 20
-87.854
 11
50.7908
 21
-87.63
  0
LINE
  8
0
 10
50.7908
 20
-87.63
 11
51.2589
 21
-87.5146
  0
LINE
  8
0
 10
51.2589
 20
-87.5146
 11
51.7411
 21
-87.5146
  0
LINE
  8
0
 10
51.7411
 20
-87.5146
 11
52.2092
 21
-87.63
  0
LINE
  8
0
 10
52.2092
 20
-87.63
 11
52.6361
 21
-87.854
  0
LINE
  8
0
 10
52.6361
 20
-87.854
 11
52.997
 21
-88.1738
  0
LINE
  8
0
 10
52.997
 20
-88.1738
 11
53.2709
 21
-88.5706
  0
LINE
  8
0
 10
53.2709
 20
-88.5706
 11
53.4419
 21
-89.0214
  0
LINE
  8
0
 10
53.4419
 20
-89.0214
 11
53.5
 21
-89.5
  0
LINE
  8
0
 10
53.5
 20
-89.5
 11
53.4419
 21
-89.9786
  0
LINE
  8
0
 10
53.4419
 20
-89.9786
 11
53.2709
 21
-90.4294
  0
LINE
  8
0
 10
53.2709
 20
-90.4294
 11
52.997
 21
-90.8262
  0
LINE
  8
0
 10
52.997
 20
-90.8262
 11
52.6361
 21
-91.146
  0
LINE
  8
0
 10
52.6361
 20
-91.146
 11
52.2092
 21
-91.37
  0
LINE
  8
0
 10
52.2092
 20
-91.37
 11
51.7411
 21
-91.4854
  0
LINE
  8
0
 10
51.7411
 20
-91.4854
 11
51.2589
 21
-91.4854
  0
LINE
  8
0
 10
51.2589
 20
-91.4854
 11
50.7908
 21
-91.37
  0
LINE
  8
0
 10
50.7908
 20
-91.37
 11
50.3639
 21
-91.146
  0
LINE
  8
0
 10
50.3639
 20
-91.146
 11
50.003
 21
-90.8262
  0
LINE
  8
0
 10
50.003
 20
-90.8262
 11
49.7291
 21
-90.4294
  0
LINE
  8
0
 10
49.7291
 20
-90.4294
 11
49.5581
 21
-89.9786
  0
LINE
  8
0
 10
49.5581
 20
-89.9786
 11
49.5
 21
-89.5
  0
LINE
  8
0
 10
49.5
 20
59.92
 11
49.5581
 21
60.3986
  0
LINE
  8
0
 10
49.5581
 20
60.3986
 11
49.7291
 21
60.8494
  0
LINE
  8
0
 10
49.7291
 20
60.8494
 11
50.003
 21
61.2462
  0
LINE
  8
0
 10
50.003
 20
61.2462
 11
50.3639
 21
61.566
  0
LINE
  8
0
 10
50.3639
 20
61.566
 11
50.7908
 21
61.79
  0
LINE
  8
0
 10
50.7908
 20
61.79
 11
51.2589
 21
61.9054
  0
LINE
  8
0
 10
51.2589
 20
61.9054
 11
51.7411
 21
61.9054
  0
LINE
  8
0
 10
51.7411
 20
61.9054
 11
52.2092
 21
61.79
  0
LINE
  8
0
 10
52.2092
 20
61.79
 11
52.6361
 21
61.566
  0
LINE
  8
0
 10
52.6361
 20
61.566
 11
52.997
 21
61.2462
  0
LINE
  8
0
 10
52.997
 20
61.2462
 11
53.2709
 21
60.8494
  0
LINE
  8
0
 10
53.2709
 20
60.8494
 11
53.4419
 21
60.3986
  0
LINE
  8
0
 10
53.4419
 20
60.3986
 11
53.5
 21
59.92
  0
LINE
  8
0
 10
53.5
 20
59.92
 11
53.4419
 21
59.4414
  0
LINE
  8
0
 10
53.4419
 20
59.4414
 11
53.2709
 21
58.9906
  0
LINE
  8
0
 10
53.2709
 20
58.9906
 11
52.997
 21
58.5938
  0
LINE
  8
0
 10
52.997
 20
58.5938
 11
52.6361
 21
58.274
  0
LINE
  8
0
 10
52.6361
 20
58.274
 11
52.2092
 21
58.05
  0
LINE
  8
0
 10
52.2092
 20
58.05
 11
51.7411
 21
57.9346
  0
LINE
  8
0
 10
51.7411
 20
57.9346
 11
51.2589
 21
57.9346
  0
LINE
  8
0
 10
51.2589
 20
57.9346
 11
50.7908
 21
58.05
  0
LINE
  8
0
 10
50.7908
 20
58.05
 11
50.3639
 21
58.274
  0
LINE
  8
0
 10
50.3639
 20
58.274
 11
50.003
 21
58.5938
  0
LINE
  8
0
 10
50.003
 20
58.5938
 11
49.7291
 21
58.9906
  0
LINE
  8
0
 10
49.7291
 20
58.9906
 11
49.5581
 21
59.4414
  0
LINE
  8
0
 10
49.5581
 20
59.4414
 11
49.5
 21
59.92
  0
LINE
  8
0
 10
52.9205
 20
-82.2469
 11
52.9205
 21
-81.7531
  0
LINE
  8
0
 10
52.9205
 20
-81.7531
 11
53.0808
 21
-81.2861
  0
LINE
  8
0
 10
53.0808
 20
-81.2861
 11
53.3841
 21
-80.8964
  0
LINE
  8
0
 10
53.3841
 20
-80.8964
 11
53.7975
 21
-80.6263
  0
LINE
  8
0
 10
53.7975
 20
-80.6263
 11
54.2761
 21
-80.5051
  0
LINE
  8
0
 10
54.2761
 20
-80.5051
 11
54.7682
 21
-80.5459
  0
LINE
  8
0
 10
54.7682
 20
-80.5459
 11
55.2204
 21
-80.7443
  0
LINE
  8
0
 10
55.2204
 20
-80.7443
 11
55.5837
 21
-81.0787
  0
LINE
  8
0
 10
55.5837
 20
-81.0787
 11
55.8187
 21
-81.513
  0
LINE
  8
0
 10
55.8187
 20
-81.513
 11
55.9
 21
-82
  0
LINE
  8
0
 10
55.9
 20
-82
 11
55.8187
 21
-82.4871
  0
LINE
  8
0
 10
55.8187
 20
-82.4871
 11
55.5837
 21
-82.9213
  0
LINE
  8
0
 10
55.5837
 20
-82.9213
 11
55.2204
 21
-83.2558
  0
LINE
  8
0
 10
55.2204
 20
-83.2558
 11
54.7682
 21
-83.4541
  0
LINE
  8
0
 10
54.7682
 20
-83.4541
 11
54.2761
 21
-83.4949
  0
LINE
  8
0
 10
54.2761
 20
-83.4949
 11
53.7975
 21
-83.3737
  0
LINE
  8
0
 10
53.7975
 20
-83.3737
 11
53.3841
 21
-83.1036
  0
LINE
  8
0
 10
53.3841
 20
-83.1036
 11
53.0808
 21
-82.7139
  0
LINE
  8
0
 10
53.0808
 20
-82.7139
 11
52.9205
 21
-82.2469
  0
LINE
  8
0
 10
52.9205
 20
45.1731
 11
52.9205
 21
45.6669
  0
LINE
  8
0
 10
52.9205
 20
45.6669
 11
53.0808
 21
46.1339
  0
LINE
  8
0
 10
53.0808
 20
46.1339
 11
53.3841
 21
46.5236
  0
LINE
  8
0
 10
53.3841
 20
46.5236
 11
53.7975
 21
46.7937
  0
LINE
  8
0
 10
53.7975
 20
46.7937
 11
54.2761
 21
46.9149
  0
LINE
  8
0
 10
54.2761
 20
46.9149
 11
54.7682
 21
46.8741
  0
LINE
  8
0
 10
54.7682
 20
46.8741
 11
55.2204
 21
46.6757
  0
LINE
  8
0
 10
55.2204
 20
46.6757
 11
55.5837
 21
46.3413
  0
LINE
  8
0
 10
55.5837
 20
46.3413
 11
55.8187
 21
45.907
  0
LINE
  8
0
 10
55.8187
 20
45.907
 11
55.9
 21
45.42
  0
LINE
  8
0
 10
55.9
 20
45.42
 11
55.8187
 21
44.9329
  0
LINE
  8
0
 10
55.8187
 20
44.9329
 11
55.5837
 21
44.4987
  0
LINE
  8
0
 10
55.5837
 20
44.4987
 11
55.2204
 21
44.1642
  0
LINE
  8
0
 10
55.2204
 20
44.1642
 11
54.7682
 21
43.9659
  0
LINE
  8
0
 10
54.7682
 20
43.9659
 11
54.2761
 21
43.9251
  0
LINE
  8
0
 10
54.2761
 20
43.9251
 11
53.7975
 21
44.0463
  0
LINE
  8
0
 10
53.7975
 20
44.0463
 11
53.3841
 21
44.3164
  0
LINE
  8
0
 10
53.3841
 20
44.3164
 11
53.0808
 21
44.7061
  0
LINE
  8
0
 10
53.0808
 20
44.7061
 11
52.9205
 21
45.1731
  0
LINE
  8
0
 10
53.2346
 20
-104.623
 11
53.2714
 21
-104.133
  0
LINE
  8
0
 10
53.2714
 20
-104.133
 11
53.4511
 21
-103.675
  0
LINE
  8
0
 10
53.4511
 20
-103.675
 11
53.7577
 21
-103.29
  0
LINE
  8
0
 10
53.7577
 20
-103.29
 11
54.1641
 21
-103.013
  0
LINE
  8
0
 10
54.1641
 20
-103.013
 11
54.6341
 21
-102.868
  0
LINE
  8
0
 10
54.6341
 20
-102.868
 11
55.1259
 21
-102.868
  0
LINE
  8
0
 10
55.1259
 20
-102.868
 11
55.5959
 21
-103.013
  0
LINE
  8
0
 10
55.5959
 20
-103.013
 11
56.0023
 21
-103.29
  0
LINE
  8
0
 10
56.0023
 20
-103.29
 11
56.3089
 21
-103.675
  0
LINE
  8
0
 10
56.3089
 20
-103.675
 11
56.4886
 21
-104.133
  0
LINE
  8
0
 10
56.4886
 20
-104.133
 11
56.5254
 21
-104.623
  0
LINE
  8
0
 10
56.5254
 20
-104.623
 11
56.4159
 21
-105.103
  0
LINE
  8
0
 10
56.4159
 20
-105.103
 11
56.17
 21
-105.529
  0
LINE
  8
0
 10
56.17
 20
-105.529
 11
55.8095
 21
-105.863
  0
LINE
  8
0
 10
55.8095
 20
-105.863
 11
55.3663
 21
-106.077
  0
LINE
  8
0
 10
55.3663
 20
-106.077
 11
54.88
 21
-106.15
  0
LINE
  8
0
 10
54.88
 20
-106.15
 11
54.3937
 21
-106.077
  0
LINE
  8
0
 10
54.3937
 20
-106.077
 11
53.9505
 21
-105.863
  0
LINE
  8
0
 10
53.9505
 20
-105.863
 11
53.59
 21
-105.529
  0
LINE
  8
0
 10
53.59
 20
-105.529
 11
53.3441
 21
-105.103
  0
LINE
  8
0
 10
53.3441
 20
-105.103
 11
53.2346
 21
-104.623
  0
LINE
  8
0
 10
53.2346
 20
93.3767
 11
53.2714
 21
93.8672
  0
LINE
  8
0
 10
53.2714
 20
93.8672
 11
53.4511
 21
94.325
  0
LINE
  8
0
 10
53.4511
 20
94.325
 11
53.7577
 21
94.7095
  0
LINE
  8
0
 10
53.7577
 20
94.7095
 11
54.1641
 21
94.9866
  0
LINE
  8
0
 10
54.1641
 20
94.9866
 11
54.6341
 21
95.1316
  0
LINE
  8
0
 10
54.6341
 20
95.1316
 11
55.1259
 21
95.1316
  0
LINE
  8
0
 10
55.1259
 20
95.1316
 11
55.5959
 21
94.9866
  0
LINE
  8
0
 10
55.5959
 20
94.9866
 11
56.0023
 21
94.7095
  0
LINE
  8
0
 10
56.0023
 20
94.7095
 11
56.3089
 21
94.325
  0
LINE
  8
0
 10
56.3089
 20
94.325
 11
56.4886
 21
93.8672
  0
LINE
  8
0
 10
56.4886
 20
93.8672
 11
56.5254
 21
93.3767
  0
LINE
  8
0
 10
56.5254
 20
93.3767
 11
56.4159
 21
92.8972
  0
LINE
  8
0
 10
56.4159
 20
92.8972
 11
56.17
 21
92.4712
  0
LINE
  8
0
 10
56.17
 20
92.4712
 11
55.8095
 21
92.1367
  0
LINE
  8
0
 10
55.8095
 20
92.1367
 11
55.3663
 21
91.9233
  0
LINE
  8
0
 10
55.3663
 20
91.9233
 11
54.88
 21
91.85
  0
LINE
  8
0
 10
54.88
 20
91.85
 11
54.3937
 21
91.9233
  0
LINE
  8
0
 10
54.3937
 20
91.9233
 11
53.9505
 21
92.1367
  0
LINE
  8
0
 10
53.9505
 20
92.1367
 11
53.59
 21
92.4712
  0
LINE
  8
0
 10
53.59
 20
92.4712
 11
53.3441
 21
92.8972
  0
LINE
  8
0
 10
53.3441
 20
92.8972
 11
53.2346
 21
93.3767
  0
LINE
  8
0
 10
57.2
 20
-87
 11
57.2813
 21
-86.5129
  0
LINE
  8
0
 10
57.2813
 20
-86.5129
 11
57.5163
 21
-86.0787
  0
LINE
  8
0
 10
57.5163
 20
-86.0787
 11
57.8796
 21
-85.7442
  0
LINE
  8
0
 10
57.8796
 20
-85.7442
 11
58.3318
 21
-85.5459
  0
LINE
  8
0
 10
58.3318
 20
-85.5459
 11
58.8239
 21
-85.5051
  0
LINE
  8
0
 10
58.8239
 20
-85.5051
 11
59.3025
 21
-85.6263
  0
LINE
  8
0
 10
59.3025
 20
-85.6263
 11
59.7159
 21
-85.8964
  0
LINE
  8
0
 10
59.7159
 20
-85.8964
 11
60.0192
 21
-86.2861
  0
LINE
  8
0
 10
60.0192
 20
-86.2861
 11
60.1795
 21
-86.7531
  0
LINE
  8
0
 10
60.1795
 20
-86.7531
 11
60.1795
 21
-87.2469
  0
LINE
  8
0
 10
60.1795
 20
-87.2469
 11
60.0192
 21
-87.7139
  0
LINE
  8
0
 10
60.0192
 20
-87.7139
 11
59.7159
 21
-88.1036
  0
LINE
  8
0
 10
59.7159
 20
-88.1036
 11
59.3025
 21
-88.3737
  0
LINE
  8
0
 10
59.3025
 20
-88.3737
 11
58.8239
 21
-88.4949
  0
LINE
  8
0
 10
58.8239
 20
-88.4949
 11
58.3318
 21
-88.4541
  0
LINE
  8
0
 10
58.3318
 20
-88.4541
 11
57.8796
 21
-88.2557
  0
LINE
  8
0
 10
57.8796
 20
-88.2557
 11
57.5163
 21
-87.9213
  0
LINE
  8
0
 10
57.5163
 20
-87.9213
 11
57.2813
 21
-87.487
  0
LINE
  8
0
 10
57.2813
 20
-87.487
 11
57.2
 21
-87
  0
LINE
  8
0
 10
57.2
 20
40.42
 11
57.2813
 21
40.9071
  0
LINE
  8
0
 10
57.2813
 20
40.9071
 11
57.5163
 21
41.3413
  0
LINE
  8
0
 10
57.5163
 20
41.3413
 11
57.8796
 21
41.6758
  0
LINE
  8
0
 10
57.8796
 20
41.6758
 11
58.3318
 21
41.8741
  0
LINE
  8
0
 10
58.3318
 20
41.8741
 11
58.8239
 21
41.9149
  0
LINE
  8
0
 10
58.8239
 20
41.9149
 11
59.3025
 21
41.7937
  0
LINE
  8
0
 10
59.3025
 20
41.7937
 11
59.7159
 21
41.5236
  0
LINE
  8
0
 10
59.7159
 20
41.5236
 11
60.0192
 21
41.1339
  0
LINE
  8
0
 10
60.0192
 20
41.1339
 11
60.1795
 21
40.6669
  0
LINE
  8
0
 10
60.1795
 20
40.6669
 11
60.1795
 21
40.1731
  0
LINE
  8
0
 10
60.1795
 20
40.1731
 11
60.0192
 21
39.7061
  0
LINE
  8
0
 10
60.0192
 20
39.7061
 11
59.7159
 21
39.3164
  0
LINE
  8
0
 10
59.7159
 20
39.3164
 11
59.3025
 21
39.0463
  0
LINE
  8
0
 10
59.3025
 20
39.0463
 11
58.8239
 21
38.9251
  0
LINE
  8
0
 10
58.8239
 20
38.9251
 11
58.3318
 21
38.9659
  0
LINE
  8
0
 10
58.3318
 20
38.9659
 11
57.8796
 21
39.1643
  0
LINE
  8
0
 10
57.8796
 20
39.1643
 11
57.5163
 21
39.4987
  0
LINE
  8
0
 10
57.5163
 20
39.4987
 11
57.2813
 21
39.933
  0
LINE
  8
0
 10
57.2813
 20
39.933
 11
57.2
 21
40.42
  0
LINE
  8
0
 10
59.1
 20
50.42
 11
59.148
 21
50.9077
  0
LINE
  8
0
 10
59.148
 20
50.9077
 11
59.2903
 21
51.3767
  0
LINE
  8
0
 10
59.2903
 20
51.3767
 11
59.5213
 21
51.8089
  0
LINE
  8
0
 10
59.5213
 20
51.8089
 11
59.8322
 21
52.1878
  0
LINE
  8
0
 10
59.8322
 20
52.1878
 11
60.2111
 21
52.4987
  0
LINE
  8
0
 10
60.2111
 20
52.4987
 11
60.6433
 21
52.7297
  0
LINE
  8
0
 10
60.6433
 20
52.7297
 11
61.1123
 21
52.872
  0
LINE
  8
0
 10
61.1123
 20
52.872
 11
61.6
 21
52.92
  0
LINE
  8
0
 10
61.6
 20
52.92
 11
62.0877
 21
52.872
  0
LINE
  8
0
 10
62.0877
 20
52.872
 11
62.5567
 21
52.7297
  0
LINE
  8
0
 10
62.5567
 20
52.7297
 11
62.9889
 21
52.4987
  0
LINE
  8
0
 10
62.9889
 20
52.4987
 11
63.3678
 21
52.1878
  0
LINE
  8
0
 10
63.3678
 20
52.1878
 11
63.6787
 21
51.8089
  0
LINE
  8
0
 10
63.6787
 20
51.8089
 11
63.9097
 21
51.3767
  0
LINE
  8
0
 10
63.9097
 20
51.3767
 11
64.052
 21
50.9077
  0
LINE
  8
0
 10
64.052
 20
50.9077
 11
64.1
 21
50.42
  0
LINE
  8
0
 10
64.1
 20
50.42
 11
64.052
 21
49.9323
  0
LINE
  8
0
 10
64.052
 20
49.9323
 11
63.9097
 21
49.4633
  0
LINE
  8
0
 10
63.9097
 20
49.4633
 11
63.6787
 21
49.0311
  0
LINE
  8
0
 10
63.6787
 20
49.0311
 11
63.3678
 21
48.6522
  0
LINE
  8
0
 10
63.3678
 20
48.6522
 11
62.9889
 21
48.3413
  0
LINE
  8
0
 10
62.9889
 20
48.3413
 11
62.5567
 21
48.1103
  0
LINE
  8
0
 10
62.5567
 20
48.1103
 11
62.0877
 21
47.968
  0
LINE
  8
0
 10
62.0877
 20
47.968
 11
61.6
 21
47.92
  0
LINE
  8
0
 10
61.6
 20
47.92
 11
61.1123
 21
47.968
  0
LINE
  8
0
 10
61.1123
 20
47.968
 11
60.6433
 21
48.1103
  0
LINE
  8
0
 10
60.6433
 20
48.1103
 11
60.2111
 21
48.3413
  0
LINE
  8
0
 10
60.2111
 20
48.3413
 11
59.8322
 21
48.6522
  0
LINE
  8
0
 10
59.8322
 20
48.6522
 11
59.5213
 21
49.0311
  0
LINE
  8
0
 10
59.5213
 20
49.0311
 11
59.2903
 21
49.4633
  0
LINE
  8
0
 10
59.2903
 20
49.4633
 11
59.148
 21
49.9323
  0
LINE
  8
0
 10
59.148
 20
49.9323
 11
59.1
 21
50.42
  0
LINE
  8
0
 10
63
 20
-87
 11
63.0813
 21
-86.5129
  0
LINE
  8
0
 10
63.0813
 20
-86.5129
 11
63.3163
 21
-86.0787
  0
LINE
  8
0
 10
63.3163
 20
-86.0787
 11
63.6796
 21
-85.7442
  0
LINE
  8
0
 10
63.6796
 20
-85.7442
 11
64.1318
 21
-85.5459
  0
LINE
  8
0
 10
64.1318
 20
-85.5459
 11
64.6239
 21
-85.5051
  0
LINE
  8
0
 10
64.6239
 20
-85.5051
 11
65.1025
 21
-85.6263
  0
LINE
  8
0
 10
65.1025
 20
-85.6263
 11
65.5159
 21
-85.8964
  0
LINE
  8
0
 10
65.5159
 20
-85.8964
 11
65.8192
 21
-86.2861
  0
LINE
  8
0
 10
65.8192
 20
-86.2861
 11
65.9795
 21
-86.7531
  0
LINE
  8
0
 10
65.9795
 20
-86.7531
 11
65.9795
 21
-87.2469
  0
LINE
  8
0
 10
65.9795
 20
-87.2469
 11
65.8192
 21
-87.7139
  0
LINE
  8
0
 10
65.8192
 20
-87.7139
 11
65.5159
 21
-88.1036
  0
LINE
  8
0
 10
65.5159
 20
-88.1036
 11
65.1025
 21
-88.3737
  0
LINE
  8
0
 10
65.1025
 20
-88.3737
 11
64.6239
 21
-88.4949
  0
LINE
  8
0
 10
64.6239
 20
-88.4949
 11
64.1318
 21
-88.4541
  0
LINE
  8
0
 10
64.1318
 20
-88.4541
 11
63.6796
 21
-88.2557
  0
LINE
  8
0
 10
63.6796
 20
-88.2557
 11
63.3163
 21
-87.9213
  0
LINE
  8
0
 10
63.3163
 20
-87.9213
 11
63.0813
 21
-87.487
  0
LINE
  8
0
 10
63.0813
 20
-87.487
 11
63
 21
-87
  0
LINE
  8
0
 10
63
 20
40.42
 11
63.0813
 21
40.9071
  0
LINE
  8
0
 10
63.0813
 20
40.9071
 11
63.3163
 21
41.3413
  0
LINE
  8
0
 10
63.3163
 20
41.3413
 11
63.6796
 21
41.6758
  0
LINE
  8
0
 10
63.6796
 20
41.6758
 11
64.1318
 21
41.8741
  0
LINE
  8
0
 10
64.1318
 20
41.8741
 11
64.6239
 21
41.9149
  0
LINE
  8
0
 10
64.6239
 20
41.9149
 11
65.1025
 21
41.7937
  0
LINE
  8
0
 10
65.1025
 20
41.7937
 11
65.5159
 21
41.5236
  0
LINE
  8
0
 10
65.5159
 20
41.5236
 11
65.8192
 21
41.1339
  0
LINE
  8
0
 10
65.8192
 20
41.1339
 11
65.9795
 21
40.6669
  0
LINE
  8
0
 10
65.9795
 20
40.6669
 11
65.9795
 21
40.1731
  0
LINE
  8
0
 10
65.9795
 20
40.1731
 11
65.8192
 21
39.7061
  0
LINE
  8
0
 10
65.8192
 20
39.7061
 11
65.5159
 21
39.3164
  0
LINE
  8
0
 10
65.5159
 20
39.3164
 11
65.1025
 21
39.0463
  0
LINE
  8
0
 10
65.1025
 20
39.0463
 11
64.6239
 21
38.9251
  0
LINE
  8
0
 10
64.6239
 20
38.9251
 11
64.1318
 21
38.9659
  0
LINE
  8
0
 10
64.1318
 20
38.9659
 11
63.6796
 21
39.1643
  0
LINE
  8
0
 10
63.6796
 20
39.1643
 11
63.3163
 21
39.4987
  0
LINE
  8
0
 10
63.3163
 20
39.4987
 11
63.0813
 21
39.933
  0
LINE
  8
0
 10
63.0813
 20
39.933
 11
63
 21
40.42
  0
LINE
  8
0
 10
78.8784
 20
41.0241
 11
78.8784
 21
41.5159
  0
LINE
  8
0
 10
78.8784
 20
41.5159
 11
79.0234
 21
41.9859
  0
LINE
  8
0
 10
79.0234
 20
41.9859
 11
79.3005
 21
42.3923
  0
LINE
  8
0
 10
79.3005
 20
42.3923
 11
79.685
 21
42.6989
  0
LINE
  8
0
 10
79.685
 20
42.6989
 11
80.1428
 21
42.8786
  0
LINE
  8
0
 10
80.1428
 20
42.8786
 11
80.6333
 21
42.9154
  0
LINE
  8
0
 10
80.6333
 20
42.9154
 11
81.1128
 21
42.8059
  0
LINE
  8
0
 10
81.1128
 20
42.8059
 11
81.5388
 21
42.56
  0
LINE
  8
0
 10
81.5388
 20
42.56
 11
81.8733
 21
42.1995
  0
LINE
  8
0
 10
81.8733
 20
42.1995
 11
82.0867
 21
41.7563
  0
LINE
  8
0
 10
82.0867
 20
41.7563
 11
82.16
 21
41.27
  0
LINE
  8
0
 10
82.16
 20
41.27
 11
82.0867
 21
40.7837
  0
LINE
  8
0
 10
82.0867
 20
40.7837
 11
81.8733
 21
40.3405
  0
LINE
  8
0
 10
81.8733
 20
40.3405
 11
81.5388
 21
39.98
  0
LINE
  8
0
 10
81.5388
 20
39.98
 11
81.1128
 21
39.7341
  0
LINE
  8
0
 10
81.1128
 20
39.7341
 11
80.6333
 21
39.6246
  0
LINE
  8
0
 10
80.6333
 20
39.6246
 11
80.1428
 21
39.6614
  0
LINE
  8
0
 10
80.1428
 20
39.6614
 11
79.685
 21
39.8411
  0
LINE
  8
0
 10
79.685
 20
39.8411
 11
79.3005
 21
40.1477
  0
LINE
  8
0
 10
79.3005
 20
40.1477
 11
79.0234
 21
40.5541
  0
LINE
  8
0
 10
79.0234
 20
40.5541
 11
78.8784
 21
41.0241
  0
LINE
  8
0
 10
88.5046
 20
-140.867
 11
88.6141
 21
-140.387
  0
LINE
  8
0
 10
88.6141
 20
-140.387
 11
88.86
 21
-139.961
  0
LINE
  8
0
 10
88.86
 20
-139.961
 11
89.2205
 21
-139.627
  0
LINE
  8
0
 10
89.2205
 20
-139.627
 11
89.6637
 21
-139.413
  0
LINE
  8
0
 10
89.6637
 20
-139.413
 11
90.15
 21
-139.34
  0
LINE
  8
0
 10
90.15
 20
-139.34
 11
90.6363
 21
-139.413
  0
LINE
  8
0
 10
90.6363
 20
-139.413
 11
91.0795
 21
-139.627
  0
LINE
  8
0
 10
91.0795
 20
-139.627
 11
91.44
 21
-139.961
  0
LINE
  8
0
 10
91.44
 20
-139.961
 11
91.6859
 21
-140.387
  0
LINE
  8
0
 10
91.6859
 20
-140.387
 11
91.7954
 21
-140.867
  0
LINE
  8
0
 10
91.7954
 20
-140.867
 11
91.7586
 21
-141.357
  0
LINE
  8
0
 10
91.7586
 20
-141.357
 11
91.5789
 21
-141.815
  0
LINE
  8
0
 10
91.5789
 20
-141.815
 11
91.2723
 21
-142.2
  0
LINE
  8
0
 10
91.2723
 20
-142.2
 11
90.8659
 21
-142.477
  0
LINE
  8
0
 10
90.8659
 20
-142.477
 11
90.3959
 21
-142.622
  0
LINE
  8
0
 10
90.3959
 20
-142.622
 11
89.9041
 21
-142.622
  0
LINE
  8
0
 10
89.9041
 20
-142.622
 11
89.4341
 21
-142.477
  0
LINE
  8
0
 10
89.4341
 20
-142.477
 11
89.0277
 21
-142.2
  0
LINE
  8
0
 10
89.0277
 20
-142.2
 11
88.7211
 21
-141.815
  0
LINE
  8
0
 10
88.7211
 20
-141.815
 11
88.5414
 21
-141.357
  0
LINE
  8
0
 10
88.5414
 20
-141.357
 11
88.5046
 21
-140.867
  0
LINE
  8
0
 10
88.5046
 20
141.113
 11
88.6141
 21
141.593
  0
LINE
  8
0
 10
88.6141
 20
141.593
 11
88.86
 21
142.019
  0
LINE
  8
0
 10
88.86
 20
142.019
 11
89.2205
 21
142.353
  0
LINE
  8
0
 10
89.2205
 20
142.353
 11
89.6637
 21
142.567
  0
LINE
  8
0
 10
89.6637
 20
142.567
 11
90.15
 21
142.64
  0
LINE
  8
0
 10
90.15
 20
142.64
 11
90.6363
 21
142.567
  0
LINE
  8
0
 10
90.6363
 20
142.567
 11
91.0795
 21
142.353
  0
LINE
  8
0
 10
91.0795
 20
142.353
 11
91.44
 21
142.019
  0
LINE
  8
0
 10
91.44
 20
142.019
 11
91.6859
 21
141.593
  0
LINE
  8
0
 10
91.6859
 20
141.593
 11
91.7954
 21
141.113
  0
LINE
  8
0
 10
91.7954
 20
141.113
 11
91.7586
 21
140.623
  0
LINE
  8
0
 10
91.7586
 20
140.623
 11
91.5789
 21
140.165
  0
LINE
  8
0
 10
91.5789
 20
140.165
 11
91.2723
 21
139.78
  0
LINE
  8
0
 10
91.2723
 20
139.78
 11
90.8659
 21
139.503
  0
LINE
  8
0
 10
90.8659
 20
139.503
 11
90.3959
 21
139.358
  0
LINE
  8
0
 10
90.3959
 20
139.358
 11
89.9041
 21
139.358
  0
LINE
  8
0
 10
89.9041
 20
139.358
 11
89.4341
 21
139.503
  0
LINE
  8
0
 10
89.4341
 20
139.503
 11
89.0277
 21
139.78
  0
LINE
  8
0
 10
89.0277
 20
139.78
 11
88.7211
 21
140.165
  0
LINE
  8
0
 10
88.7211
 20
140.165
 11
88.5414
 21
140.623
  0
LINE
  8
0
 10
88.5414
 20
140.623
 11
88.5046
 21
141.113
  0
LINE
  8
0
 10
112.508
 20
-0.246243
 11
112.508
 21
0.246243
  0
LINE
  8
0
 10
112.508
 20
0.246243
 11
112.568
 21
0.734998
  0
LINE
  8
0
 10
112.568
 20
0.734998
 11
112.688
 21
1.21261
  0
LINE
  8
0
 10
112.688
 20
1.21261
 11
112.866
 21
1.67184
  0
LINE
  8
0
 10
112.866
 20
1.67184
 11
113.099
 21
2.10573
  0
LINE
  8
0
 10
113.099
 20
2.10573
 11
113.384
 21
2.5077
  0
LINE
  8
0
 10
113.384
 20
2.5077
 11
113.715
 21
2.87165
  0
LINE
  8
0
 10
113.715
 20
2.87165
 11
114.089
 21
3.19207
  0
LINE
  8
0
 10
114.089
 20
3.19207
 11
114.5
 21
3.4641
  0
LINE
  8
0
 10
114.5
 20
3.4641
 11
114.941
 21
3.68362
  0
LINE
  8
0
 10
114.941
 20
3.68362
 11
115.405
 21
3.8473
  0
LINE
  8
0
 10
115.405
 20
3.8473
 11
115.886
 21
3.95266
  0
LINE
  8
0
 10
115.886
 20
3.95266
 11
116.377
 21
3.9981
  0
LINE
  8
0
 10
116.377
 20
3.9981
 11
116.869
 21
3.98294
  0
LINE
  8
0
 10
116.869
 20
3.98294
 11
117.356
 21
3.90739
  0
LINE
  8
0
 10
117.356
 20
3.90739
 11
117.829
 21
3.77262
  0
LINE
  8
0
 10
117.829
 20
3.77262
 11
118.283
 21
3.58065
  0
LINE
  8
0
 10
118.283
 20
3.58065
 11
118.709
 21
3.33441
  0
LINE
  8
0
 10
118.709
 20
3.33441
 11
119.102
 21
3.03762
  0
LINE
  8
0
 10
119.102
 20
3.03762
 11
119.456
 21
2.69478
  0
LINE
  8
0
 10
119.456
 20
2.69478
 11
119.765
 21
2.3111
  0
LINE
  8
0
 10
119.765
 20
2.3111
 11
120.024
 21
1.89237
  0
LINE
  8
0
 10
120.024
 20
1.89237
 11
120.23
 21
1.44497
  0
LINE
  8
0
 10
120.23
 20
1.44497
 11
120.379
 21
0.975655
  0
LINE
  8
0
 10
120.379
 20
0.975655
 11
120.47
 21
0.491552
  0
LINE
  8
0
 10
120.47
 20
0.491552
 11
120.5
 21
0
  0
LINE
  8
0
 10
120.5
 20
0
 11
120.47
 21
-0.491552
  0
LINE
  8
0
 10
120.47
 20
-0.491552
 11
120.379
 21
-0.975655
  0
LINE
  8
0
 10
120.379
 20
-0.975655
 11
120.23
 21
-1.44497
  0
LINE
  8
0
 10
120.23
 20
-1.44497
 11
120.024
 21
-1.89237
  0
LINE
  8
0
 10
120.024
 20
-1.89237
 11
119.765
 21
-2.3111
  0
LINE
  8
0
 10
119.765
 20
-2.3111
 11
119.456
 21
-2.69478
  0
LINE
  8
0
 10
119.456
 20
-2.69478
 11
119.102
 21
-3.03762
  0
LINE
  8
0
 10
119.102
 20
-3.03762
 11
118.709
 21
-3.33441
  0
LINE
  8
0
 10
118.709
 20
-3.33441
 11
118.283
 21
-3.58065
  0
LINE
  8
0
 10
118.283
 20
-3.58065
 11
117.829
 21
-3.77262
  0
LINE
  8
0
 10
117.829
 20
-3.77262
 11
117.356
 21
-3.90739
  0
LINE
  8
0
 10
117.356
 20
-3.90739
 11
116.869
 21
-3.98294
  0
LINE
  8
0
 10
116.869
 20
-3.98294
 11
116.377
 21
-3.9981
  0
LINE
  8
0
 10
116.377
 20
-3.9981
 11
115.886
 21
-3.95266
  0
LINE
  8
0
 10
115.886
 20
-3.95266
 11
115.405
 21
-3.8473
  0
LINE
  8
0
 10
115.405
 20
-3.8473
 11
114.941
 21
-3.68362
  0
LINE
  8
0
 10
114.941
 20
-3.68362
 11
114.5
 21
-3.4641
  0
LINE
  8
0
 10
114.5
 20
-3.4641
 11
114.089
 21
-3.19207
  0
LINE
  8
0
 10
114.089
 20
-3.19207
 11
113.715
 21
-2.87165
  0
LINE
  8
0
 10
113.715
 20
-2.87165
 11
113.384
 21
-2.5077
  0
LINE
  8
0
 10
113.384
 20
-2.5077
 11
113.099
 21
-2.10573
  0
LINE
  8
0
 10
113.099
 20
-2.10573
 11
112.866
 21
-1.67184
  0
LINE
  8
0
 10
112.866
 20
-1.67184
 11
112.688
 21
-1.21261
  0
LINE
  8
0
 10
112.688
 20
-1.21261
 11
112.568
 21
-0.734998
  0
LINE
  8
0
 10
112.568
 20
-0.734998
 11
112.508
 21
-0.246243
  0
LINE
  8
0
 10
160.858
 20
41.0241
 11
160.858
 21
41.5159
  0
LINE
  8
0
 10
160.858
 20
41.5159
 11
161.003
 21
41.9859
  0
LINE
  8
0
 10
161.003
 20
41.9859
 11
161.28
 21
42.3923
  0
LINE
  8
0
 10
161.28
 20
42.3923
 11
161.665
 21
42.6989
  0
LINE
  8
0
 10
161.665
 20
42.6989
 11
162.123
 21
42.8786
  0
LINE
  8
0
 10
162.123
 20
42.8786
 11
162.613
 21
42.9154
  0
LINE
  8
0
 10
162.613
 20
42.9154
 11
163.093
 21
42.8059
  0
LINE
  8
0
 10
163.093
 20
42.8059
 11
163.519
 21
42.56
  0
LINE
  8
0
 10
163.519
 20
42.56
 11
163.853
 21
42.1995
  0
LINE
  8
0
 10
163.853
 20
42.1995
 11
164.067
 21
41.7563
  0
LINE
  8
0
 10
164.067
 20
41.7563
 11
164.14
 21
41.27
  0
LINE
  8
0
 10
164.14
 20
41.27
 11
164.067
 21
40.7837
  0
LINE
  8
0
 10
164.067
 20
40.7837
 11
163.853
 21
40.3405
  0
LINE
  8
0
 10
163.853
 20
40.3405
 11
163.519
 21
39.98
  0
LINE
  8
0
 10
163.519
 20
39.98
 11
163.093
 21
39.7341
  0
LINE
  8
0
 10
163.093
 20
39.7341
 11
162.613
 21
39.6246
  0
LINE
  8
0
 10
162.613
 20
39.6246
 11
162.123
 21
39.6614
  0
LINE
  8
0
 10
162.123
 20
39.6614
 11
161.665
 21
39.8411
  0
LINE
  8
0
 10
161.665
 20
39.8411
 11
161.28
 21
40.1477
  0
LINE
  8
0
 10
161.28
 20
40.1477
 11
161.003
 21
40.5541
  0
LINE
  8
0
 10
161.003
 20
40.5541
 11
160.858
 21
41.0241
  0
ENDSEC
  0
SECTION
  2
OBJECTS
  0
DICTIONARY
  0
ENDSEC
  0
EOF
