  0
SECTION
  2
BLOCKS
  0
ENDSEC
  0
SECTION
  2
ENTITIES
  0
LINE
  8
0
 10
0
 20
-121.88
 11
292
 21
-121.88
  0
LINE
  8
0
 10
292
 20
-121.88
 11
294.179
 21
-121.785
  0
LINE
  8
0
 10
294.179
 20
-121.785
 11
296.341
 21
-121.5
  0
LINE
  8
0
 10
296.341
 20
-121.5
 11
298.47
 21
-121.028
  0
LINE
  8
0
 10
298.47
 20
-121.028
 11
300.551
 21
-120.372
  0
LINE
  8
0
 10
300.551
 20
-120.372
 11
302.565
 21
-119.538
  0
LINE
  8
0
 10
302.565
 20
-119.538
 11
304.5
 21
-118.531
  0
LINE
  8
0
 10
304.5
 20
-118.531
 11
306.339
 21
-117.359
  0
LINE
  8
0
 10
306.339
 20
-117.359
 11
308.07
 21
-116.031
  0
LINE
  8
0
 10
308.07
 20
-116.031
 11
309.678
 21
-114.558
  0
LINE
  8
0
 10
309.678
 20
-114.558
 11
311.151
 21
-112.95
  0
LINE
  8
0
 10
311.151
 20
-112.95
 11
312.479
 21
-111.219
  0
LINE
  8
0
 10
312.479
 20
-111.219
 11
313.651
 21
-109.38
  0
LINE
  8
0
 10
313.651
 20
-109.38
 11
314.658
 21
-107.445
  0
LINE
  8
0
 10
314.658
 20
-107.445
 11
315.492
 21
-105.431
  0
LINE
  8
0
 10
315.492
 20
-105.431
 11
316.148
 21
-103.35
  0
LINE
  8
0
 10
316.148
 20
-103.35
 11
316.62
 21
-101.221
  0
LINE
  8
0
 10
316.62
 20
-101.221
 11
316.905
 21
-99.0589
  0
LINE
  8
0
 10
316.905
 20
-99.0589
 11
317
 21
-96.88
  0
LINE
  8
0
 10
317
 20
-96.88
 11
317
 21
1.14441e-007
  0
LINE
  8
0
 10
317
 20
1.14441e-007
 11
271.265
 21
1.14441e-007
  0
LINE
  8
0
 10
271.265
 20
1.14441e-007
 11
271.265
 21
-2.24107
  0
LINE
  8
0
 10
271.265
 20
-2.24107
 11
271.15
 21
-2.70921
  0
LINE
  8
0
 10
271.15
 20
-2.70921
 11
270.926
 21
-3.13613
  0
LINE
  8
0
 10
270.926
 20
-3.13613
 11
270.606
 21
-3.49702
  0
LINE
  8
0
 10
270.606
 20
-3.49702
 11
270.209
 21
-3.77091
  0
LINE
  8
0
 10
270.209
 20
-3.77091
 11
269.759
 21
-3.94188
  0
LINE
  8
0
 10
269.759
 20
-3.94188
 11
269.28
 21
-4
  0
LINE
  8
0
 10
269.28
 20
-4
 11
268.801
 21
-3.94188
  0
LINE
  8
0
 10
268.801
 20
-3.94188
 11
268.351
 21
-3.77091
  0
LINE
  8
0
 10
268.351
 20
-3.77091
 11
267.954
 21
-3.49702
  0
LINE
  8
0
 10
267.954
 20
-3.49702
 11
267.634
 21
-3.13613
  0
LINE
  8
0
 10
267.634
 20
-3.13613
 11
267.41
 21
-2.70921
  0
LINE
  8
0
 10
267.41
 20
-2.70921
 11
267.295
 21
-2.24107
  0
LINE
  8
0
 10
267.295
 20
-2.24107
 11
267.295
 21
1.14441e-007
  0
LINE
  8
0
 10
267.295
 20
1.14441e-007
 11
261.47
 21
1.14441e-007
  0
LINE
  8
0
 10
261.47
 20
1.14441e-007
 11
261.47
 21
-3.24774
  0
LINE
  8
0
 10
261.47
 20
-3.24774
 11
261.388
 21
-3.73646
  0
LINE
  8
0
 10
261.388
 20
-3.73646
 11
261.227
 21
-4.20509
  0
LINE
  8
0
 10
261.227
 20
-4.20509
 11
260.992
 21
-4.64084
  0
LINE
  8
0
 10
260.992
 20
-4.64084
 11
260.687
 21
-5.03184
  0
LINE
  8
0
 10
260.687
 20
-5.03184
 11
260.323
 21
-5.36742
  0
LINE
  8
0
 10
260.323
 20
-5.36742
 11
259.908
 21
-5.63842
  0
LINE
  8
0
 10
259.908
 20
-5.63842
 11
259.454
 21
-5.83745
  0
LINE
  8
0
 10
259.454
 20
-5.83745
 11
258.974
 21
-5.95908
  0
LINE
  8
0
 10
258.974
 20
-5.95908
 11
258.48
 21
-6
  0
LINE
  8
0
 10
258.48
 20
-6
 11
257.986
 21
-5.95908
  0
LINE
  8
0
 10
257.986
 20
-5.95908
 11
257.506
 21
-5.83745
  0
LINE
  8
0
 10
257.506
 20
-5.83745
 11
257.052
 21
-5.63842
  0
LINE
  8
0
 10
257.052
 20
-5.63842
 11
256.637
 21
-5.36742
  0
LINE
  8
0
 10
256.637
 20
-5.36742
 11
256.273
 21
-5.03184
  0
LINE
  8
0
 10
256.273
 20
-5.03184
 11
255.969
 21
-4.64084
  0
LINE
  8
0
 10
255.969
 20
-4.64084
 11
255.733
 21
-4.20509
  0
LINE
  8
0
 10
255.733
 20
-4.20509
 11
255.572
 21
-3.73646
  0
LINE
  8
0
 10
255.572
 20
-3.73646
 11
255.49
 21
-3.24774
  0
LINE
  8
0
 10
255.49
 20
-3.24774
 11
255.49
 21
1.14441e-007
  0
LINE
  8
0
 10
255.49
 20
1.14441e-007
 11
0
 21
1.14441e-007
  0
LINE
  8
0
 10
0
 20
1.14441e-007
 11
0
 21
-13.3
  0
LINE
  8
0
 10
0
 20
-13.3
 11
2.5
 21
-13.3
  0
LINE
  8
0
 10
2.5
 20
-13.3
 11
2.98773
 21
-13.348
  0
LINE
  8
0
 10
2.98773
 20
-13.348
 11
3.45671
 21
-13.4903
  0
LINE
  8
0
 10
3.45671
 20
-13.4903
 11
3.88893
 21
-13.7213
  0
LINE
  8
0
 10
3.88893
 20
-13.7213
 11
4.26777
 21
-14.0322
  0
LINE
  8
0
 10
4.26777
 20
-14.0322
 11
4.57867
 21
-14.4111
  0
LINE
  8
0
 10
4.57867
 20
-14.4111
 11
4.8097
 21
-14.8433
  0
LINE
  8
0
 10
4.8097
 20
-14.8433
 11
4.95196
 21
-15.3123
  0
LINE
  8
0
 10
4.95196
 20
-15.3123
 11
5
 21
-15.8
  0
LINE
  8
0
 10
5
 20
-15.8
 11
4.95196
 21
-16.2877
  0
LINE
  8
0
 10
4.95196
 20
-16.2877
 11
4.8097
 21
-16.7567
  0
LINE
  8
0
 10
4.8097
 20
-16.7567
 11
4.57867
 21
-17.1889
  0
LINE
  8
0
 10
4.57867
 20
-17.1889
 11
4.26777
 21
-17.5678
  0
LINE
  8
0
 10
4.26777
 20
-17.5678
 11
3.88893
 21
-17.8787
  0
LINE
  8
0
 10
3.88893
 20
-17.8787
 11
3.45671
 21
-18.1097
  0
LINE
  8
0
 10
3.45671
 20
-18.1097
 11
2.98773
 21
-18.252
  0
LINE
  8
0
 10
2.98773
 20
-18.252
 11
2.5
 21
-18.3
  0
LINE
  8
0
 10
2.5
 20
-18.3
 11
0
 21
-18.3
  0
LINE
  8
0
 10
0
 20
-18.3
 11
0
 21
-23.3146
  0
LINE
  8
0
 10
0
 20
-23.3146
 11
2.24107
 21
-23.3146
  0
LINE
  8
0
 10
2.24107
 20
-23.3146
 11
2.70921
 21
-23.43
  0
LINE
  8
0
 10
2.70921
 20
-23.43
 11
3.13613
 21
-23.654
  0
LINE
  8
0
 10
3.13613
 20
-23.654
 11
3.49702
 21
-23.9738
  0
LINE
  8
0
 10
3.49702
 20
-23.9738
 11
3.77091
 21
-24.3706
  0
LINE
  8
0
 10
3.77091
 20
-24.3706
 11
3.94188
 21
-24.8214
  0
LINE
  8
0
 10
3.94188
 20
-24.8214
 11
4
 21
-25.3
  0
LINE
  8
0
 10
4
 20
-25.3
 11
3.94188
 21
-25.7786
  0
LINE
  8
0
 10
3.94188
 20
-25.7786
 11
3.77091
 21
-26.2294
  0
LINE
  8
0
 10
3.77091
 20
-26.2294
 11
3.49702
 21
-26.6262
  0
LINE
  8
0
 10
3.49702
 20
-26.6262
 11
3.13613
 21
-26.946
  0
LINE
  8
0
 10
3.13613
 20
-26.946
 11
2.70921
 21
-27.17
  0
LINE
  8
0
 10
2.70921
 20
-27.17
 11
2.24107
 21
-27.2854
  0
LINE
  8
0
 10
2.24107
 20
-27.2854
 11
0
 21
-27.2854
  0
LINE
  8
0
 10
0
 20
-27.2854
 11
0
 21
-66.2946
  0
LINE
  8
0
 10
0
 20
-66.2946
 11
2.24107
 21
-66.2946
  0
LINE
  8
0
 10
2.24107
 20
-66.2946
 11
2.70921
 21
-66.41
  0
LINE
  8
0
 10
2.70921
 20
-66.41
 11
3.13613
 21
-66.634
  0
LINE
  8
0
 10
3.13613
 20
-66.634
 11
3.49702
 21
-66.9538
  0
LINE
  8
0
 10
3.49702
 20
-66.9538
 11
3.77091
 21
-67.3506
  0
LINE
  8
0
 10
3.77091
 20
-67.3506
 11
3.94188
 21
-67.8014
  0
LINE
  8
0
 10
3.94188
 20
-67.8014
 11
4
 21
-68.28
  0
LINE
  8
0
 10
4
 20
-68.28
 11
3.94188
 21
-68.7586
  0
LINE
  8
0
 10
3.94188
 20
-68.7586
 11
3.77091
 21
-69.2094
  0
LINE
  8
0
 10
3.77091
 20
-69.2094
 11
3.49702
 21
-69.6062
  0
LINE
  8
0
 10
3.49702
 20
-69.6062
 11
3.13613
 21
-69.926
  0
LINE
  8
0
 10
3.13613
 20
-69.926
 11
2.70921
 21
-70.15
  0
LINE
  8
0
 10
2.70921
 20
-70.15
 11
2.24107
 21
-70.2654
  0
LINE
  8
0
 10
2.24107
 20
-70.2654
 11
0
 21
-70.2654
  0
LINE
  8
0
 10
0
 20
-70.2654
 11
0
 21
-76.28
  0
LINE
  8
0
 10
0
 20
-76.28
 11
3.5
 21
-76.28
  0
LINE
  8
0
 10
3.5
 20
-76.28
 11
3.9981
 21
-76.3156
  0
LINE
  8
0
 10
3.9981
 20
-76.3156
 11
4.48606
 21
-76.4218
  0
LINE
  8
0
 10
4.48606
 20
-76.4218
 11
4.95395
 21
-76.5963
  0
LINE
  8
0
 10
4.95395
 20
-76.5963
 11
5.39224
 21
-76.8356
  0
LINE
  8
0
 10
5.39224
 20
-76.8356
 11
5.79201
 21
-77.1349
  0
LINE
  8
0
 10
5.79201
 20
-77.1349
 11
6.14512
 21
-77.488
  0
LINE
  8
0
 10
6.14512
 20
-77.488
 11
6.44439
 21
-77.8878
  0
LINE
  8
0
 10
6.44439
 20
-77.8878
 11
6.68371
 21
-78.326
  0
LINE
  8
0
 10
6.68371
 20
-78.326
 11
6.85822
 21
-78.7939
  0
LINE
  8
0
 10
6.85822
 20
-78.7939
 11
6.96437
 21
-79.2819
  0
LINE
  8
0
 10
6.96437
 20
-79.2819
 11
7
 21
-79.78
  0
LINE
  8
0
 10
7
 20
-79.78
 11
6.96437
 21
-80.2781
  0
LINE
  8
0
 10
6.96437
 20
-80.2781
 11
6.85822
 21
-80.7661
  0
LINE
  8
0
 10
6.85822
 20
-80.7661
 11
6.68371
 21
-81.234
  0
LINE
  8
0
 10
6.68371
 20
-81.234
 11
6.44439
 21
-81.6722
  0
LINE
  8
0
 10
6.44439
 20
-81.6722
 11
6.14512
 21
-82.072
  0
LINE
  8
0
 10
6.14512
 20
-82.072
 11
5.79201
 21
-82.4251
  0
LINE
  8
0
 10
5.79201
 20
-82.4251
 11
5.39224
 21
-82.7244
  0
LINE
  8
0
 10
5.39224
 20
-82.7244
 11
4.95395
 21
-82.9637
  0
LINE
  8
0
 10
4.95395
 20
-82.9637
 11
4.48606
 21
-83.1382
  0
LINE
  8
0
 10
4.48606
 20
-83.1382
 11
3.9981
 21
-83.2444
  0
LINE
  8
0
 10
3.9981
 20
-83.2444
 11
3.5
 21
-83.28
  0
LINE
  8
0
 10
3.5
 20
-83.28
 11
0
 21
-83.28
  0
LINE
  8
0
 10
0
 20
-83.28
 11
0
 21
-121.88
  0
LINE
  8
0
 10
5.00461
 20
-114.857
 11
5.11406
 21
-114.377
  0
LINE
  8
0
 10
5.11406
 20
-114.377
 11
5.35998
 21
-113.951
  0
LINE
  8
0
 10
5.35998
 20
-113.951
 11
5.72052
 21
-113.617
  0
LINE
  8
0
 10
5.72052
 20
-113.617
 11
6.16365
 21
-113.403
  0
LINE
  8
0
 10
6.16365
 20
-113.403
 11
6.65
 21
-113.33
  0
LINE
  8
0
 10
6.65
 20
-113.33
 11
7.13635
 21
-113.403
  0
LINE
  8
0
 10
7.13635
 20
-113.403
 11
7.57948
 21
-113.617
  0
LINE
  8
0
 10
7.57948
 20
-113.617
 11
7.94002
 21
-113.951
  0
LINE
  8
0
 10
7.94002
 20
-113.951
 11
8.18594
 21
-114.377
  0
LINE
  8
0
 10
8.18594
 20
-114.377
 11
8.29539
 21
-114.857
  0
LINE
  8
0
 10
8.29539
 20
-114.857
 11
8.25863
 21
-115.347
  0
LINE
  8
0
 10
8.25863
 20
-115.347
 11
8.07894
 21
-115.805
  0
LINE
  8
0
 10
8.07894
 20
-115.805
 11
7.77228
 21
-116.19
  0
LINE
  8
0
 10
7.77228
 20
-116.19
 11
7.36591
 21
-116.467
  0
LINE
  8
0
 10
7.36591
 20
-116.467
 11
6.89592
 21
-116.612
  0
LINE
  8
0
 10
6.89592
 20
-116.612
 11
6.40408
 21
-116.612
  0
LINE
  8
0
 10
6.40408
 20
-116.612
 11
5.93409
 21
-116.467
  0
LINE
  8
0
 10
5.93409
 20
-116.467
 11
5.52771
 21
-116.19
  0
LINE
  8
0
 10
5.52771
 20
-116.19
 11
5.22106
 21
-115.805
  0
LINE
  8
0
 10
5.22106
 20
-115.805
 11
5.04137
 21
-115.347
  0
LINE
  8
0
 10
5.04137
 20
-115.347
 11
5.00461
 21
-114.857
  0
LINE
  8
0
 10
5.00461
 20
-97.6367
 11
5.11406
 21
-97.1572
  0
LINE
  8
0
 10
5.11406
 20
-97.1572
 11
5.35998
 21
-96.7312
  0
LINE
  8
0
 10
5.35998
 20
-96.7312
 11
5.72052
 21
-96.3967
  0
LINE
  8
0
 10
5.72052
 20
-96.3967
 11
6.16365
 21
-96.1833
  0
LINE
  8
0
 10
6.16365
 20
-96.1833
 11
6.65
 21
-96.11
  0
LINE
  8
0
 10
6.65
 20
-96.11
 11
7.13635
 21
-96.1833
  0
LINE
  8
0
 10
7.13635
 20
-96.1833
 11
7.57948
 21
-96.3967
  0
LINE
  8
0
 10
7.57948
 20
-96.3967
 11
7.94002
 21
-96.7312
  0
LINE
  8
0
 10
7.94002
 20
-96.7312
 11
8.18594
 21
-97.1572
  0
LINE
  8
0
 10
8.18594
 20
-97.1572
 11
8.29539
 21
-97.6367
  0
LINE
  8
0
 10
8.29539
 20
-97.6367
 11
8.25863
 21
-98.1272
  0
LINE
  8
0
 10
8.25863
 20
-98.1272
 11
8.07894
 21
-98.585
  0
LINE
  8
0
 10
8.07894
 20
-98.585
 11
7.77228
 21
-98.9695
  0
LINE
  8
0
 10
7.77228
 20
-98.9695
 11
7.36591
 21
-99.2466
  0
LINE
  8
0
 10
7.36591
 20
-99.2466
 11
6.89592
 21
-99.3916
  0
LINE
  8
0
 10
6.89592
 20
-99.3916
 11
6.40408
 21
-99.3916
  0
LINE
  8
0
 10
6.40408
 20
-99.3916
 11
5.93409
 21
-99.2466
  0
LINE
  8
0
 10
5.93409
 20
-99.2466
 11
5.52771
 21
-98.9695
  0
LINE
  8
0
 10
5.52771
 20
-98.9695
 11
5.22106
 21
-98.585
  0
LINE
  8
0
 10
5.22106
 20
-98.585
 11
5.04137
 21
-98.1272
  0
LINE
  8
0
 10
5.04137
 20
-98.1272
 11
5.00461
 21
-97.6367
  0
LINE
  8
0
 10
18.5684
 20
-6.89592
 11
18.5684
 21
-6.40408
  0
LINE
  8
0
 10
18.5684
 20
-6.40408
 11
18.7134
 21
-5.93409
  0
LINE
  8
0
 10
18.7134
 20
-5.93409
 11
18.9905
 21
-5.52771
  0
LINE
  8
0
 10
18.9905
 20
-5.52771
 11
19.375
 21
-5.22106
  0
LINE
  8
0
 10
19.375
 20
-5.22106
 11
19.8328
 21
-5.04137
  0
LINE
  8
0
 10
19.8328
 20
-5.04137
 11
20.3233
 21
-5.00461
  0
LINE
  8
0
 10
20.3233
 20
-5.00461
 11
20.8028
 21
-5.11406
  0
LINE
  8
0
 10
20.8028
 20
-5.11406
 11
21.2288
 21
-5.35998
  0
LINE
  8
0
 10
21.2288
 20
-5.35998
 11
21.5633
 21
-5.72052
  0
LINE
  8
0
 10
21.5633
 20
-5.72052
 11
21.7767
 21
-6.16365
  0
LINE
  8
0
 10
21.7767
 20
-6.16365
 11
21.85
 21
-6.65
  0
LINE
  8
0
 10
21.85
 20
-6.65
 11
21.7767
 21
-7.13635
  0
LINE
  8
0
 10
21.7767
 20
-7.13635
 11
21.5633
 21
-7.57948
  0
LINE
  8
0
 10
21.5633
 20
-7.57948
 11
21.2288
 21
-7.94002
  0
LINE
  8
0
 10
21.2288
 20
-7.94002
 11
20.8028
 21
-8.18594
  0
LINE
  8
0
 10
20.8028
 20
-8.18594
 11
20.3233
 21
-8.29539
  0
LINE
  8
0
 10
20.3233
 20
-8.29539
 11
19.8328
 21
-8.25863
  0
LINE
  8
0
 10
19.8328
 20
-8.25863
 11
19.375
 21
-8.07894
  0
LINE
  8
0
 10
19.375
 20
-8.07894
 11
18.9905
 21
-7.77228
  0
LINE
  8
0
 10
18.9905
 20
-7.77228
 11
18.7134
 21
-7.36591
  0
LINE
  8
0
 10
18.7134
 20
-7.36591
 11
18.5684
 21
-6.89592
  0
LINE
  8
0
 10
18.61
 20
-99.5
 11
18.6833
 21
-99.0137
  0
LINE
  8
0
 10
18.6833
 20
-99.0137
 11
18.8967
 21
-98.5705
  0
LINE
  8
0
 10
18.8967
 20
-98.5705
 11
19.2312
 21
-98.21
  0
LINE
  8
0
 10
19.2312
 20
-98.21
 11
19.6572
 21
-97.9641
  0
LINE
  8
0
 10
19.6572
 20
-97.9641
 11
20.1367
 21
-97.8546
  0
LINE
  8
0
 10
20.1367
 20
-97.8546
 11
20.6272
 21
-97.8914
  0
LINE
  8
0
 10
20.6272
 20
-97.8914
 11
21.085
 21
-98.0711
  0
LINE
  8
0
 10
21.085
 20
-98.0711
 11
21.4695
 21
-98.3777
  0
LINE
  8
0
 10
21.4695
 20
-98.3777
 11
21.7466
 21
-98.7841
  0
LINE
  8
0
 10
21.7466
 20
-98.7841
 11
21.8916
 21
-99.2541
  0
LINE
  8
0
 10
21.8916
 20
-99.2541
 11
21.8916
 21
-99.7459
  0
LINE
  8
0
 10
21.8916
 20
-99.7459
 11
21.7466
 21
-100.216
  0
LINE
  8
0
 10
21.7466
 20
-100.216
 11
21.4695
 21
-100.622
  0
LINE
  8
0
 10
21.4695
 20
-100.622
 11
21.085
 21
-100.929
  0
LINE
  8
0
 10
21.085
 20
-100.929
 11
20.6272
 21
-101.109
  0
LINE
  8
0
 10
20.6272
 20
-101.109
 11
20.1367
 21
-101.145
  0
LINE
  8
0
 10
20.1367
 20
-101.145
 11
19.6572
 21
-101.036
  0
LINE
  8
0
 10
19.6572
 20
-101.036
 11
19.2312
 21
-100.79
  0
LINE
  8
0
 10
19.2312
 20
-100.79
 11
18.8967
 21
-100.429
  0
LINE
  8
0
 10
18.8967
 20
-100.429
 11
18.6833
 21
-99.9863
  0
LINE
  8
0
 10
18.6833
 20
-99.9863
 11
18.61
 21
-99.5
  0
LINE
  8
0
 10
18.61
 20
-25.5
 11
18.6833
 21
-25.0137
  0
LINE
  8
0
 10
18.6833
 20
-25.0137
 11
18.8967
 21
-24.5705
  0
LINE
  8
0
 10
18.8967
 20
-24.5705
 11
19.2312
 21
-24.21
  0
LINE
  8
0
 10
19.2312
 20
-24.21
 11
19.6572
 21
-23.9641
  0
LINE
  8
0
 10
19.6572
 20
-23.9641
 11
20.1367
 21
-23.8546
  0
LINE
  8
0
 10
20.1367
 20
-23.8546
 11
20.6272
 21
-23.8914
  0
LINE
  8
0
 10
20.6272
 20
-23.8914
 11
21.085
 21
-24.0711
  0
LINE
  8
0
 10
21.085
 20
-24.0711
 11
21.4695
 21
-24.3777
  0
LINE
  8
0
 10
21.4695
 20
-24.3777
 11
21.7466
 21
-24.7841
  0
LINE
  8
0
 10
21.7466
 20
-24.7841
 11
21.8916
 21
-25.2541
  0
LINE
  8
0
 10
21.8916
 20
-25.2541
 11
21.8916
 21
-25.7459
  0
LINE
  8
0
 10
21.8916
 20
-25.7459
 11
21.7466
 21
-26.2159
  0
LINE
  8
0
 10
21.7466
 20
-26.2159
 11
21.4695
 21
-26.6223
  0
LINE
  8
0
 10
21.4695
 20
-26.6223
 11
21.085
 21
-26.9289
  0
LINE
  8
0
 10
21.085
 20
-26.9289
 11
20.6272
 21
-27.1086
  0
LINE
  8
0
 10
20.6272
 20
-27.1086
 11
20.1367
 21
-27.1454
  0
LINE
  8
0
 10
20.1367
 20
-27.1454
 11
19.6572
 21
-27.0359
  0
LINE
  8
0
 10
19.6572
 20
-27.0359
 11
19.2312
 21
-26.79
  0
LINE
  8
0
 10
19.2312
 20
-26.79
 11
18.8967
 21
-26.4295
  0
LINE
  8
0
 10
18.8967
 20
-26.4295
 11
18.6833
 21
-25.9863
  0
LINE
  8
0
 10
18.6833
 20
-25.9863
 11
18.61
 21
-25.5
  0
LINE
  8
0
 10
35.7884
 20
-6.89592
 11
35.7884
 21
-6.40408
  0
LINE
  8
0
 10
35.7884
 20
-6.40408
 11
35.9334
 21
-5.93409
  0
LINE
  8
0
 10
35.9334
 20
-5.93409
 11
36.2105
 21
-5.52771
  0
LINE
  8
0
 10
36.2105
 20
-5.52771
 11
36.595
 21
-5.22106
  0
LINE
  8
0
 10
36.595
 20
-5.22106
 11
37.0528
 21
-5.04137
  0
LINE
  8
0
 10
37.0528
 20
-5.04137
 11
37.5433
 21
-5.00461
  0
LINE
  8
0
 10
37.5433
 20
-5.00461
 11
38.0228
 21
-5.11406
  0
LINE
  8
0
 10
38.0228
 20
-5.11406
 11
38.4488
 21
-5.35998
  0
LINE
  8
0
 10
38.4488
 20
-5.35998
 11
38.7833
 21
-5.72052
  0
LINE
  8
0
 10
38.7833
 20
-5.72052
 11
38.9967
 21
-6.16365
  0
LINE
  8
0
 10
38.9967
 20
-6.16365
 11
39.07
 21
-6.65
  0
LINE
  8
0
 10
39.07
 20
-6.65
 11
38.9967
 21
-7.13635
  0
LINE
  8
0
 10
38.9967
 20
-7.13635
 11
38.7833
 21
-7.57948
  0
LINE
  8
0
 10
38.7833
 20
-7.57948
 11
38.4488
 21
-7.94002
  0
LINE
  8
0
 10
38.4488
 20
-7.94002
 11
38.0228
 21
-8.18594
  0
LINE
  8
0
 10
38.0228
 20
-8.18594
 11
37.5433
 21
-8.29539
  0
LINE
  8
0
 10
37.5433
 20
-8.29539
 11
37.0528
 21
-8.25863
  0
LINE
  8
0
 10
37.0528
 20
-8.25863
 11
36.595
 21
-8.07894
  0
LINE
  8
0
 10
36.595
 20
-8.07894
 11
36.2105
 21
-7.77228
  0
LINE
  8
0
 10
36.2105
 20
-7.77228
 11
35.9334
 21
-7.36591
  0
LINE
  8
0
 10
35.9334
 20
-7.36591
 11
35.7884
 21
-6.89592
  0
LINE
  8
0
 10
63.61
 20
-94.5
 11
63.6833
 21
-94.0137
  0
LINE
  8
0
 10
63.6833
 20
-94.0137
 11
63.8967
 21
-93.5705
  0
LINE
  8
0
 10
63.8967
 20
-93.5705
 11
64.2312
 21
-93.21
  0
LINE
  8
0
 10
64.2312
 20
-93.21
 11
64.6572
 21
-92.9641
  0
LINE
  8
0
 10
64.6572
 20
-92.9641
 11
65.1367
 21
-92.8546
  0
LINE
  8
0
 10
65.1367
 20
-92.8546
 11
65.6272
 21
-92.8914
  0
LINE
  8
0
 10
65.6272
 20
-92.8914
 11
66.085
 21
-93.0711
  0
LINE
  8
0
 10
66.085
 20
-93.0711
 11
66.4695
 21
-93.3777
  0
LINE
  8
0
 10
66.4695
 20
-93.3777
 11
66.7466
 21
-93.7841
  0
LINE
  8
0
 10
66.7466
 20
-93.7841
 11
66.8916
 21
-94.2541
  0
LINE
  8
0
 10
66.8916
 20
-94.2541
 11
66.8916
 21
-94.7459
  0
LINE
  8
0
 10
66.8916
 20
-94.7459
 11
66.7466
 21
-95.2159
  0
LINE
  8
0
 10
66.7466
 20
-95.2159
 11
66.4695
 21
-95.6223
  0
LINE
  8
0
 10
66.4695
 20
-95.6223
 11
66.085
 21
-95.9289
  0
LINE
  8
0
 10
66.085
 20
-95.9289
 11
65.6272
 21
-96.1086
  0
LINE
  8
0
 10
65.6272
 20
-96.1086
 11
65.1367
 21
-96.1454
  0
LINE
  8
0
 10
65.1367
 20
-96.1454
 11
64.6572
 21
-96.0359
  0
LINE
  8
0
 10
64.6572
 20
-96.0359
 11
64.2312
 21
-95.79
  0
LINE
  8
0
 10
64.2312
 20
-95.79
 11
63.8967
 21
-95.4295
  0
LINE
  8
0
 10
63.8967
 20
-95.4295
 11
63.6833
 21
-94.9863
  0
LINE
  8
0
 10
63.6833
 20
-94.9863
 11
63.61
 21
-94.5
  0
LINE
  8
0
 10
63.61
 20
-25.5
 11
63.6833
 21
-25.0137
  0
LINE
  8
0
 10
63.6833
 20
-25.0137
 11
63.8967
 21
-24.5705
  0
LINE
  8
0
 10
63.8967
 20
-24.5705
 11
64.2312
 21
-24.21
  0
LINE
  8
0
 10
64.2312
 20
-24.21
 11
64.6572
 21
-23.9641
  0
LINE
  8
0
 10
64.6572
 20
-23.9641
 11
65.1367
 21
-23.8546
  0
LINE
  8
0
 10
65.1367
 20
-23.8546
 11
65.6272
 21
-23.8914
  0
LINE
  8
0
 10
65.6272
 20
-23.8914
 11
66.085
 21
-24.0711
  0
LINE
  8
0
 10
66.085
 20
-24.0711
 11
66.4695
 21
-24.3777
  0
LINE
  8
0
 10
66.4695
 20
-24.3777
 11
66.7466
 21
-24.7841
  0
LINE
  8
0
 10
66.7466
 20
-24.7841
 11
66.8916
 21
-25.2541
  0
LINE
  8
0
 10
66.8916
 20
-25.2541
 11
66.8916
 21
-25.7459
  0
LINE
  8
0
 10
66.8916
 20
-25.7459
 11
66.7466
 21
-26.2159
  0
LINE
  8
0
 10
66.7466
 20
-26.2159
 11
66.4695
 21
-26.6223
  0
LINE
  8
0
 10
66.4695
 20
-26.6223
 11
66.085
 21
-26.9289
  0
LINE
  8
0
 10
66.085
 20
-26.9289
 11
65.6272
 21
-27.1086
  0
LINE
  8
0
 10
65.6272
 20
-27.1086
 11
65.1367
 21
-27.1454
  0
LINE
  8
0
 10
65.1367
 20
-27.1454
 11
64.6572
 21
-27.0359
  0
LINE
  8
0
 10
64.6572
 20
-27.0359
 11
64.2312
 21
-26.79
  0
LINE
  8
0
 10
64.2312
 20
-26.79
 11
63.8967
 21
-26.4295
  0
LINE
  8
0
 10
63.8967
 20
-26.4295
 11
63.6833
 21
-25.9863
  0
LINE
  8
0
 10
63.6833
 20
-25.9863
 11
63.61
 21
-25.5
  0
LINE
  8
0
 10
91.1746
 20
-82.0183
 11
91.2114
 21
-81.5278
  0
LINE
  8
0
 10
91.2114
 20
-81.5278
 11
91.3911
 21
-81.07
  0
LINE
  8
0
 10
91.3911
 20
-81.07
 11
91.6977
 21
-80.6855
  0
LINE
  8
0
 10
91.6977
 20
-80.6855
 11
92.1041
 21
-80.4084
  0
LINE
  8
0
 10
92.1041
 20
-80.4084
 11
92.5741
 21
-80.2634
  0
LINE
  8
0
 10
92.5741
 20
-80.2634
 11
93.0659
 21
-80.2634
  0
LINE
  8
0
 10
93.0659
 20
-80.2634
 11
93.5359
 21
-80.4084
  0
LINE
  8
0
 10
93.5359
 20
-80.4084
 11
93.9423
 21
-80.6855
  0
LINE
  8
0
 10
93.9423
 20
-80.6855
 11
94.2489
 21
-81.07
  0
LINE
  8
0
 10
94.2489
 20
-81.07
 11
94.4286
 21
-81.5278
  0
LINE
  8
0
 10
94.4286
 20
-81.5278
 11
94.4654
 21
-82.0183
  0
LINE
  8
0
 10
94.4654
 20
-82.0183
 11
94.3559
 21
-82.4978
  0
LINE
  8
0
 10
94.3559
 20
-82.4978
 11
94.11
 21
-82.9238
  0
LINE
  8
0
 10
94.11
 20
-82.9238
 11
93.7495
 21
-83.2583
  0
LINE
  8
0
 10
93.7495
 20
-83.2583
 11
93.3063
 21
-83.4717
  0
LINE
  8
0
 10
93.3063
 20
-83.4717
 11
92.82
 21
-83.545
  0
LINE
  8
0
 10
92.82
 20
-83.545
 11
92.3337
 21
-83.4717
  0
LINE
  8
0
 10
92.3337
 20
-83.4717
 11
91.8905
 21
-83.2583
  0
LINE
  8
0
 10
91.8905
 20
-83.2583
 11
91.53
 21
-82.9238
  0
LINE
  8
0
 10
91.53
 20
-82.9238
 11
91.2841
 21
-82.4978
  0
LINE
  8
0
 10
91.2841
 20
-82.4978
 11
91.1746
 21
-82.0183
  0
LINE
  8
0
 10
91.1746
 20
-40.1083
 11
91.2114
 21
-39.6178
  0
LINE
  8
0
 10
91.2114
 20
-39.6178
 11
91.3911
 21
-39.16
  0
LINE
  8
0
 10
91.3911
 20
-39.16
 11
91.6977
 21
-38.7755
  0
LINE
  8
0
 10
91.6977
 20
-38.7755
 11
92.1041
 21
-38.4984
  0
LINE
  8
0
 10
92.1041
 20
-38.4984
 11
92.5741
 21
-38.3534
  0
LINE
  8
0
 10
92.5741
 20
-38.3534
 11
93.0659
 21
-38.3534
  0
LINE
  8
0
 10
93.0659
 20
-38.3534
 11
93.5359
 21
-38.4984
  0
LINE
  8
0
 10
93.5359
 20
-38.4984
 11
93.9423
 21
-38.7755
  0
LINE
  8
0
 10
93.9423
 20
-38.7755
 11
94.2489
 21
-39.16
  0
LINE
  8
0
 10
94.2489
 20
-39.16
 11
94.4286
 21
-39.6178
  0
LINE
  8
0
 10
94.4286
 20
-39.6178
 11
94.4654
 21
-40.1083
  0
LINE
  8
0
 10
94.4654
 20
-40.1083
 11
94.3559
 21
-40.5878
  0
LINE
  8
0
 10
94.3559
 20
-40.5878
 11
94.11
 21
-41.0138
  0
LINE
  8
0
 10
94.11
 20
-41.0138
 11
93.7495
 21
-41.3483
  0
LINE
  8
0
 10
93.7495
 20
-41.3483
 11
93.3063
 21
-41.5617
  0
LINE
  8
0
 10
93.3063
 20
-41.5617
 11
92.82
 21
-41.635
  0
LINE
  8
0
 10
92.82
 20
-41.635
 11
92.3337
 21
-41.5617
  0
LINE
  8
0
 10
92.3337
 20
-41.5617
 11
91.8905
 21
-41.3483
  0
LINE
  8
0
 10
91.8905
 20
-41.3483
 11
91.53
 21
-41.0138
  0
LINE
  8
0
 10
91.53
 20
-41.0138
 11
91.2841
 21
-40.5878
  0
LINE
  8
0
 10
91.2841
 20
-40.5878
 11
91.1746
 21
-40.1083
  0
LINE
  8
0
 10
208.272
 20
-32.3
 11
208.346
 21
-31.8137
  0
LINE
  8
0
 10
208.346
 20
-31.8137
 11
208.559
 21
-31.3705
  0
LINE
  8
0
 10
208.559
 20
-31.3705
 11
208.894
 21
-31.01
  0
LINE
  8
0
 10
208.894
 20
-31.01
 11
209.319
 21
-30.7641
  0
LINE
  8
0
 10
209.319
 20
-30.7641
 11
209.799
 21
-30.6546
  0
LINE
  8
0
 10
209.799
 20
-30.6546
 11
210.289
 21
-30.6914
  0
LINE
  8
0
 10
210.289
 20
-30.6914
 11
210.747
 21
-30.8711
  0
LINE
  8
0
 10
210.747
 20
-30.8711
 11
211.132
 21
-31.1777
  0
LINE
  8
0
 10
211.132
 20
-31.1777
 11
211.409
 21
-31.5841
  0
LINE
  8
0
 10
211.409
 20
-31.5841
 11
211.554
 21
-32.0541
  0
LINE
  8
0
 10
211.554
 20
-32.0541
 11
211.554
 21
-32.5459
  0
LINE
  8
0
 10
211.554
 20
-32.5459
 11
211.409
 21
-33.0159
  0
LINE
  8
0
 10
211.409
 20
-33.0159
 11
211.132
 21
-33.4223
  0
LINE
  8
0
 10
211.132
 20
-33.4223
 11
210.747
 21
-33.7289
  0
LINE
  8
0
 10
210.747
 20
-33.7289
 11
210.289
 21
-33.9086
  0
LINE
  8
0
 10
210.289
 20
-33.9086
 11
209.799
 21
-33.9454
  0
LINE
  8
0
 10
209.799
 20
-33.9454
 11
209.319
 21
-33.8359
  0
LINE
  8
0
 10
209.319
 20
-33.8359
 11
208.894
 21
-33.59
  0
LINE
  8
0
 10
208.894
 20
-33.59
 11
208.559
 21
-33.2295
  0
LINE
  8
0
 10
208.559
 20
-33.2295
 11
208.346
 21
-32.7863
  0
LINE
  8
0
 10
208.346
 20
-32.7863
 11
208.272
 21
-32.3
  0
LINE
  8
0
 10
277.948
 20
-6.89592
 11
277.948
 21
-6.40408
  0
LINE
  8
0
 10
277.948
 20
-6.40408
 11
278.093
 21
-5.93409
  0
LINE
  8
0
 10
278.093
 20
-5.93409
 11
278.37
 21
-5.52771
  0
LINE
  8
0
 10
278.37
 20
-5.52771
 11
278.755
 21
-5.22106
  0
LINE
  8
0
 10
278.755
 20
-5.22106
 11
279.213
 21
-5.04137
  0
LINE
  8
0
 10
279.213
 20
-5.04137
 11
279.703
 21
-5.00461
  0
LINE
  8
0
 10
279.703
 20
-5.00461
 11
280.183
 21
-5.11406
  0
LINE
  8
0
 10
280.183
 20
-5.11406
 11
280.609
 21
-5.35998
  0
LINE
  8
0
 10
280.609
 20
-5.35998
 11
280.943
 21
-5.72052
  0
LINE
  8
0
 10
280.943
 20
-5.72052
 11
281.157
 21
-6.16365
  0
LINE
  8
0
 10
281.157
 20
-6.16365
 11
281.23
 21
-6.65
  0
LINE
  8
0
 10
281.23
 20
-6.65
 11
281.157
 21
-7.13635
  0
LINE
  8
0
 10
281.157
 20
-7.13635
 11
280.943
 21
-7.57948
  0
LINE
  8
0
 10
280.943
 20
-7.57948
 11
280.609
 21
-7.94002
  0
LINE
  8
0
 10
280.609
 20
-7.94002
 11
280.183
 21
-8.18594
  0
LINE
  8
0
 10
280.183
 20
-8.18594
 11
279.703
 21
-8.29539
  0
LINE
  8
0
 10
279.703
 20
-8.29539
 11
279.213
 21
-8.25863
  0
LINE
  8
0
 10
279.213
 20
-8.25863
 11
278.755
 21
-8.07894
  0
LINE
  8
0
 10
278.755
 20
-8.07894
 11
278.37
 21
-7.77228
  0
LINE
  8
0
 10
278.37
 20
-7.77228
 11
278.093
 21
-7.36591
  0
LINE
  8
0
 10
278.093
 20
-7.36591
 11
277.948
 21
-6.89592
  0
LINE
  8
0
 10
291.835
 20
-82.0183
 11
291.871
 21
-81.5278
  0
LINE
  8
0
 10
291.871
 20
-81.5278
 11
292.051
 21
-81.07
  0
LINE
  8
0
 10
292.051
 20
-81.07
 11
292.358
 21
-80.6855
  0
LINE
  8
0
 10
292.358
 20
-80.6855
 11
292.764
 21
-80.4084
  0
LINE
  8
0
 10
292.764
 20
-80.4084
 11
293.234
 21
-80.2634
  0
LINE
  8
0
 10
293.234
 20
-80.2634
 11
293.726
 21
-80.2634
  0
LINE
  8
0
 10
293.726
 20
-80.2634
 11
294.196
 21
-80.4084
  0
LINE
  8
0
 10
294.196
 20
-80.4084
 11
294.602
 21
-80.6855
  0
LINE
  8
0
 10
294.602
 20
-80.6855
 11
294.909
 21
-81.07
  0
LINE
  8
0
 10
294.909
 20
-81.07
 11
295.089
 21
-81.5278
  0
LINE
  8
0
 10
295.089
 20
-81.5278
 11
295.125
 21
-82.0183
  0
LINE
  8
0
 10
295.125
 20
-82.0183
 11
295.016
 21
-82.4978
  0
LINE
  8
0
 10
295.016
 20
-82.4978
 11
294.77
 21
-82.9238
  0
LINE
  8
0
 10
294.77
 20
-82.9238
 11
294.409
 21
-83.2583
  0
LINE
  8
0
 10
294.409
 20
-83.2583
 11
293.966
 21
-83.4717
  0
LINE
  8
0
 10
293.966
 20
-83.4717
 11
293.48
 21
-83.545
  0
LINE
  8
0
 10
293.48
 20
-83.545
 11
292.994
 21
-83.4717
  0
LINE
  8
0
 10
292.994
 20
-83.4717
 11
292.551
 21
-83.2583
  0
LINE
  8
0
 10
292.551
 20
-83.2583
 11
292.19
 21
-82.9238
  0
LINE
  8
0
 10
292.19
 20
-82.9238
 11
291.944
 21
-82.4978
  0
LINE
  8
0
 10
291.944
 20
-82.4978
 11
291.835
 21
-82.0183
  0
LINE
  8
0
 10
291.835
 20
-40.1083
 11
291.871
 21
-39.6178
  0
LINE
  8
0
 10
291.871
 20
-39.6178
 11
292.051
 21
-39.16
  0
LINE
  8
0
 10
292.051
 20
-39.16
 11
292.358
 21
-38.7755
  0
LINE
  8
0
 10
292.358
 20
-38.7755
 11
292.764
 21
-38.4984
  0
LINE
  8
0
 10
292.764
 20
-38.4984
 11
293.234
 21
-38.3534
  0
LINE
  8
0
 10
293.234
 20
-38.3534
 11
293.726
 21
-38.3534
  0
LINE
  8
0
 10
293.726
 20
-38.3534
 11
294.196
 21
-38.4984
  0
LINE
  8
0
 10
294.196
 20
-38.4984
 11
294.602
 21
-38.7755
  0
LINE
  8
0
 10
294.602
 20
-38.7755
 11
294.909
 21
-39.16
  0
LINE
  8
0
 10
294.909
 20
-39.16
 11
295.089
 21
-39.6178
  0
LINE
  8
0
 10
295.089
 20
-39.6178
 11
295.125
 21
-40.1083
  0
LINE
  8
0
 10
295.125
 20
-40.1083
 11
295.016
 21
-40.5878
  0
LINE
  8
0
 10
295.016
 20
-40.5878
 11
294.77
 21
-41.0138
  0
LINE
  8
0
 10
294.77
 20
-41.0138
 11
294.409
 21
-41.3483
  0
LINE
  8
0
 10
294.409
 20
-41.3483
 11
293.966
 21
-41.5617
  0
LINE
  8
0
 10
293.966
 20
-41.5617
 11
293.48
 21
-41.635
  0
LINE
  8
0
 10
293.48
 20
-41.635
 11
292.994
 21
-41.5617
  0
LINE
  8
0
 10
292.994
 20
-41.5617
 11
292.551
 21
-41.3483
  0
LINE
  8
0
 10
292.551
 20
-41.3483
 11
292.19
 21
-41.0138
  0
LINE
  8
0
 10
292.19
 20
-41.0138
 11
291.944
 21
-40.5878
  0
LINE
  8
0
 10
291.944
 20
-40.5878
 11
291.835
 21
-40.1083
  0
LINE
  8
0
 10
295.168
 20
-6.89592
 11
295.168
 21
-6.40408
  0
LINE
  8
0
 10
295.168
 20
-6.40408
 11
295.313
 21
-5.93409
  0
LINE
  8
0
 10
295.313
 20
-5.93409
 11
295.59
 21
-5.52771
  0
LINE
  8
0
 10
295.59
 20
-5.52771
 11
295.975
 21
-5.22106
  0
LINE
  8
0
 10
295.975
 20
-5.22106
 11
296.433
 21
-5.04137
  0
LINE
  8
0
 10
296.433
 20
-5.04137
 11
296.923
 21
-5.00461
  0
LINE
  8
0
 10
296.923
 20
-5.00461
 11
297.403
 21
-5.11406
  0
LINE
  8
0
 10
297.403
 20
-5.11406
 11
297.829
 21
-5.35998
  0
LINE
  8
0
 10
297.829
 20
-5.35998
 11
298.163
 21
-5.72052
  0
LINE
  8
0
 10
298.163
 20
-5.72052
 11
298.377
 21
-6.16365
  0
LINE
  8
0
 10
298.377
 20
-6.16365
 11
298.45
 21
-6.65
  0
LINE
  8
0
 10
298.45
 20
-6.65
 11
298.377
 21
-7.13635
  0
LINE
  8
0
 10
298.377
 20
-7.13635
 11
298.163
 21
-7.57948
  0
LINE
  8
0
 10
298.163
 20
-7.57948
 11
297.829
 21
-7.94002
  0
LINE
  8
0
 10
297.829
 20
-7.94002
 11
297.403
 21
-8.18594
  0
LINE
  8
0
 10
297.403
 20
-8.18594
 11
296.923
 21
-8.29539
  0
LINE
  8
0
 10
296.923
 20
-8.29539
 11
296.433
 21
-8.25863
  0
LINE
  8
0
 10
296.433
 20
-8.25863
 11
295.975
 21
-8.07894
  0
LINE
  8
0
 10
295.975
 20
-8.07894
 11
295.59
 21
-7.77228
  0
LINE
  8
0
 10
295.59
 20
-7.77228
 11
295.313
 21
-7.36591
  0
LINE
  8
0
 10
295.313
 20
-7.36591
 11
295.168
 21
-6.89592
  0
ENDSEC
  0
SECTION
  2
OBJECTS
  0
DICTIONARY
  0
ENDSEC
  0
EOF
