  0
SECTION
  2
BLOCKS
  0
ENDSEC
  0
SECTION
  2
ENTITIES
  0
LINE
  8
0
 10
-74.74
 20
-79.7
 11
74.74
 21
-79.7
  0
LINE
  8
0
 10
74.74
 20
-79.7
 11
74.74
 21
1.5
  0
LINE
  8
0
 10
74.74
 20
1.5
 11
70.94
 21
1.5
  0
LINE
  8
0
 10
70.94
 20
1.5
 11
70.94
 21
11.5
  0
LINE
  8
0
 10
70.94
 20
11.5
 11
74.74
 21
11.5
  0
LINE
  8
0
 10
74.74
 20
11.5
 11
74.74
 21
79.7
  0
LINE
  8
0
 10
74.74
 20
79.7
 11
28.16
 21
79.7
  0
LINE
  8
0
 10
28.16
 20
79.7
 11
28.16
 21
44.7
  0
LINE
  8
0
 10
28.16
 20
44.7
 11
-28.16
 21
44.7
  0
LINE
  8
0
 10
-28.16
 20
44.7
 11
-28.16
 21
79.7
  0
LINE
  8
0
 10
-28.16
 20
79.7
 11
-74.74
 21
79.7
  0
LINE
  8
0
 10
-74.74
 20
79.7
 11
-74.74
 21
54.7
  0
LINE
  8
0
 10
-74.74
 20
54.7
 11
-70.94
 21
54.7
  0
LINE
  8
0
 10
-70.94
 20
54.7
 11
-70.94
 21
44.7
  0
LINE
  8
0
 10
-70.94
 20
44.7
 11
-74.74
 21
44.7
  0
LINE
  8
0
 10
-74.74
 20
44.7
 11
-74.74
 21
-57.7
  0
LINE
  8
0
 10
-74.74
 20
-57.7
 11
-70.94
 21
-57.7
  0
LINE
  8
0
 10
-70.94
 20
-57.7
 11
-70.94
 21
-67.7
  0
LINE
  8
0
 10
-70.94
 20
-67.7
 11
-74.74
 21
-67.7
  0
LINE
  8
0
 10
-74.74
 20
-67.7
 11
-74.74
 21
-79.7
  0
LINE
  8
0
 10
-57.42
 20
-54.7
 11
-57.42
 21
-44.7
  0
LINE
  8
0
 10
-57.42
 20
-44.7
 11
-47.42
 21
-44.7
  0
LINE
  8
0
 10
-47.42
 20
-44.7
 11
-47.42
 21
-54.7
  0
LINE
  8
0
 10
-47.42
 20
-54.7
 11
-57.42
 21
-54.7
  0
LINE
  8
0
 10
-57.42
 20
57.7
 11
-57.42
 21
67.7
  0
LINE
  8
0
 10
-57.42
 20
67.7
 11
-47.42
 21
67.7
  0
LINE
  8
0
 10
-47.42
 20
67.7
 11
-47.42
 21
57.7
  0
LINE
  8
0
 10
-47.42
 20
57.7
 11
-57.42
 21
57.7
  0
LINE
  8
0
 10
-36.51
 20
-39.2246
 11
-36.51
 21
-14.5754
  0
LINE
  8
0
 10
-36.51
 20
-14.5754
 11
-26.51
 21
-14.5754
  0
LINE
  8
0
 10
-26.51
 20
-14.5754
 11
-26.51
 21
-39.2246
  0
LINE
  8
0
 10
-26.51
 20
-39.2246
 11
-36.51
 21
-39.2246
  0
LINE
  8
0
 10
-36.51
 20
15.6754
 11
-36.51
 21
40.3246
  0
LINE
  8
0
 10
-36.51
 20
40.3246
 11
-26.51
 21
40.3246
  0
LINE
  8
0
 10
-26.51
 20
40.3246
 11
-26.51
 21
15.6754
  0
LINE
  8
0
 10
-26.51
 20
15.6754
 11
-36.51
 21
15.6754
  0
LINE
  8
0
 10
47.42
 20
-11.5
 11
47.42
 21
-1.5
  0
LINE
  8
0
 10
47.42
 20
-1.5
 11
57.42
 21
-1.5
  0
LINE
  8
0
 10
57.42
 20
-1.5
 11
57.42
 21
-11.5
  0
LINE
  8
0
 10
57.42
 20
-11.5
 11
47.42
 21
-11.5
  0
ENDSEC
  0
SECTION
  2
OBJECTS
  0
DICTIONARY
  0
ENDSEC
  0
EOF
