  0
SECTION
  2
BLOCKS
  0
ENDSEC
  0
SECTION
  2
ENTITIES
  0
LINE
  8
0
 10
-131.75
 20
278.1
 11
-131.744
 21
278.349
  0
LINE
  8
0
 10
-131.744
 20
278.349
 11
-131.694
 21
278.845
  0
LINE
  8
0
 10
-131.694
 20
278.845
 11
-131.595
 21
279.334
  0
LINE
  8
0
 10
-131.595
 20
279.334
 11
-131.448
 21
279.81
  0
LINE
  8
0
 10
-131.448
 20
279.81
 11
-131.255
 21
280.269
  0
LINE
  8
0
 10
-131.255
 20
280.269
 11
-131.016
 21
280.707
  0
LINE
  8
0
 10
-131.016
 20
280.707
 11
-130.736
 21
281.119
  0
LINE
  8
0
 10
-130.736
 20
281.119
 11
-130.415
 21
281.501
  0
LINE
  8
0
 10
-130.415
 20
281.501
 11
-130.058
 21
281.849
  0
LINE
  8
0
 10
-130.058
 20
281.849
 11
-129.669
 21
282.16
  0
LINE
  8
0
 10
-129.669
 20
282.16
 11
-129.25
 21
282.43
  0
LINE
  8
0
 10
-129.25
 20
282.43
 11
-128.806
 21
282.658
  0
LINE
  8
0
 10
-128.806
 20
282.658
 11
-128.342
 21
282.84
  0
LINE
  8
0
 10
-128.342
 20
282.84
 11
-127.863
 21
282.975
  0
LINE
  8
0
 10
-127.863
 20
282.975
 11
-127.372
 21
283.061
  0
LINE
  8
0
 10
-127.372
 20
283.061
 11
-126.875
 21
283.098
  0
LINE
  8
0
 10
-126.875
 20
283.098
 11
-126.75
 21
283.1
  0
LINE
  8
0
 10
-126.75
 20
283.1
 11
113.25
 21
283.1
  0
LINE
  8
0
 10
113.25
 20
283.1
 11
113.624
 21
283.086
  0
LINE
  8
0
 10
113.624
 20
283.086
 11
114.118
 21
283.024
  0
LINE
  8
0
 10
114.118
 20
283.024
 11
114.604
 21
282.913
  0
LINE
  8
0
 10
114.604
 20
282.913
 11
115.077
 21
282.754
  0
LINE
  8
0
 10
115.077
 20
282.754
 11
115.531
 21
282.549
  0
LINE
  8
0
 10
115.531
 20
282.549
 11
115.963
 21
282.3
  0
LINE
  8
0
 10
115.963
 20
282.3
 11
116.367
 21
282.009
  0
LINE
  8
0
 10
116.367
 20
282.009
 11
116.741
 21
281.679
  0
LINE
  8
0
 10
116.741
 20
281.679
 11
117.08
 21
281.314
  0
LINE
  8
0
 10
117.08
 20
281.314
 11
117.381
 21
280.917
  0
LINE
  8
0
 10
117.381
 20
280.917
 11
117.641
 21
280.491
  0
LINE
  8
0
 10
117.641
 20
280.491
 11
117.857
 21
280.042
  0
LINE
  8
0
 10
117.857
 20
280.042
 11
118.028
 21
279.574
  0
LINE
  8
0
 10
118.028
 20
279.574
 11
118.151
 21
279.091
  0
LINE
  8
0
 10
118.151
 20
279.091
 11
118.225
 21
278.598
  0
LINE
  8
0
 10
118.225
 20
278.598
 11
118.25
 21
278.1
  0
LINE
  8
0
 10
118.25
 20
278.1
 11
118.25
 21
0
  0
LINE
  8
0
 10
118.25
 20
0
 11
244.25
 21
0
  0
LINE
  8
0
 10
244.25
 20
0
 11
244.25
 21
389
  0
LINE
  8
0
 10
244.25
 20
389
 11
-244.25
 21
389
  0
LINE
  8
0
 10
-244.25
 20
389
 11
-244.25
 21
0
  0
LINE
  8
0
 10
-244.25
 20
0
 11
-131.75
 21
0
  0
LINE
  8
0
 10
-131.75
 20
0
 11
-131.75
 21
278.1
  0
LINE
  8
0
 10
166.785
 20
379.615
 11
166.427
 21
379.932
  0
LINE
  8
0
 10
166.427
 20
379.932
 11
166.257
 21
380.379
  0
LINE
  8
0
 10
166.257
 20
380.379
 11
166.315
 21
380.855
  0
LINE
  8
0
 10
166.315
 20
380.855
 11
166.587
 21
381.249
  0
LINE
  8
0
 10
166.587
 20
381.249
 11
167.011
 21
381.471
  0
LINE
  8
0
 10
167.011
 20
381.471
 11
167.489
 21
381.471
  0
LINE
  8
0
 10
167.489
 20
381.471
 11
167.913
 21
381.249
  0
LINE
  8
0
 10
167.913
 20
381.249
 11
168.185
 21
380.855
  0
LINE
  8
0
 10
168.185
 20
380.855
 11
168.243
 21
380.379
  0
LINE
  8
0
 10
168.243
 20
380.379
 11
168.073
 21
379.932
  0
LINE
  8
0
 10
168.073
 20
379.932
 11
167.715
 21
379.615
  0
LINE
  8
0
 10
167.715
 20
379.615
 11
167.25
 21
379.5
  0
LINE
  8
0
 10
167.25
 20
379.5
 11
166.785
 21
379.615
  0
LINE
  8
0
 10
131.785
 20
379.615
 11
131.427
 21
379.932
  0
LINE
  8
0
 10
131.427
 20
379.932
 11
131.257
 21
380.379
  0
LINE
  8
0
 10
131.257
 20
380.379
 11
131.315
 21
380.855
  0
LINE
  8
0
 10
131.315
 20
380.855
 11
131.587
 21
381.249
  0
LINE
  8
0
 10
131.587
 20
381.249
 11
132.011
 21
381.471
  0
LINE
  8
0
 10
132.011
 20
381.471
 11
132.489
 21
381.471
  0
LINE
  8
0
 10
132.489
 20
381.471
 11
132.913
 21
381.249
  0
LINE
  8
0
 10
132.913
 20
381.249
 11
133.185
 21
380.855
  0
LINE
  8
0
 10
133.185
 20
380.855
 11
133.243
 21
380.379
  0
LINE
  8
0
 10
133.243
 20
380.379
 11
133.073
 21
379.932
  0
LINE
  8
0
 10
133.073
 20
379.932
 11
132.715
 21
379.615
  0
LINE
  8
0
 10
132.715
 20
379.615
 11
132.25
 21
379.5
  0
LINE
  8
0
 10
132.25
 20
379.5
 11
131.785
 21
379.615
  0
LINE
  8
0
 10
-170.215
 20
379.615
 11
-170.573
 21
379.932
  0
LINE
  8
0
 10
-170.573
 20
379.932
 11
-170.743
 21
380.379
  0
LINE
  8
0
 10
-170.743
 20
380.379
 11
-170.685
 21
380.855
  0
LINE
  8
0
 10
-170.685
 20
380.855
 11
-170.413
 21
381.249
  0
LINE
  8
0
 10
-170.413
 20
381.249
 11
-169.989
 21
381.471
  0
LINE
  8
0
 10
-169.989
 20
381.471
 11
-169.511
 21
381.471
  0
LINE
  8
0
 10
-169.511
 20
381.471
 11
-169.087
 21
381.249
  0
LINE
  8
0
 10
-169.087
 20
381.249
 11
-168.815
 21
380.855
  0
LINE
  8
0
 10
-168.815
 20
380.855
 11
-168.757
 21
380.379
  0
LINE
  8
0
 10
-168.757
 20
380.379
 11
-168.927
 21
379.932
  0
LINE
  8
0
 10
-168.927
 20
379.932
 11
-169.285
 21
379.615
  0
LINE
  8
0
 10
-169.285
 20
379.615
 11
-169.75
 21
379.5
  0
LINE
  8
0
 10
-169.75
 20
379.5
 11
-170.215
 21
379.615
  0
LINE
  8
0
 10
-205.215
 20
379.615
 11
-205.573
 21
379.932
  0
LINE
  8
0
 10
-205.573
 20
379.932
 11
-205.743
 21
380.379
  0
LINE
  8
0
 10
-205.743
 20
380.379
 11
-205.685
 21
380.855
  0
LINE
  8
0
 10
-205.685
 20
380.855
 11
-205.413
 21
381.249
  0
LINE
  8
0
 10
-205.413
 20
381.249
 11
-204.989
 21
381.471
  0
LINE
  8
0
 10
-204.989
 20
381.471
 11
-204.511
 21
381.471
  0
LINE
  8
0
 10
-204.511
 20
381.471
 11
-204.087
 21
381.249
  0
LINE
  8
0
 10
-204.087
 20
381.249
 11
-203.815
 21
380.855
  0
LINE
  8
0
 10
-203.815
 20
380.855
 11
-203.757
 21
380.379
  0
LINE
  8
0
 10
-203.757
 20
380.379
 11
-203.927
 21
379.932
  0
LINE
  8
0
 10
-203.927
 20
379.932
 11
-204.285
 21
379.615
  0
LINE
  8
0
 10
-204.285
 20
379.615
 11
-204.75
 21
379.5
  0
LINE
  8
0
 10
-204.75
 20
379.5
 11
-205.215
 21
379.615
  0
LINE
  8
0
 10
227.595
 20
376.065
 11
227.201
 21
376.337
  0
LINE
  8
0
 10
227.201
 20
376.337
 11
226.979
 21
376.761
  0
LINE
  8
0
 10
226.979
 20
376.761
 11
226.979
 21
377.239
  0
LINE
  8
0
 10
226.979
 20
377.239
 11
227.201
 21
377.663
  0
LINE
  8
0
 10
227.201
 20
377.663
 11
227.595
 21
377.935
  0
LINE
  8
0
 10
227.595
 20
377.935
 11
228.071
 21
377.993
  0
LINE
  8
0
 10
228.071
 20
377.993
 11
228.518
 21
377.823
  0
LINE
  8
0
 10
228.518
 20
377.823
 11
228.835
 21
377.465
  0
LINE
  8
0
 10
228.835
 20
377.465
 11
228.95
 21
377
  0
LINE
  8
0
 10
228.95
 20
377
 11
228.835
 21
376.535
  0
LINE
  8
0
 10
228.835
 20
376.535
 11
228.518
 21
376.177
  0
LINE
  8
0
 10
228.518
 20
376.177
 11
228.071
 21
376.007
  0
LINE
  8
0
 10
228.071
 20
376.007
 11
227.595
 21
376.065
  0
LINE
  8
0
 10
193.195
 20
376.065
 11
192.801
 21
376.337
  0
LINE
  8
0
 10
192.801
 20
376.337
 11
192.579
 21
376.761
  0
LINE
  8
0
 10
192.579
 20
376.761
 11
192.579
 21
377.239
  0
LINE
  8
0
 10
192.579
 20
377.239
 11
192.801
 21
377.663
  0
LINE
  8
0
 10
192.801
 20
377.663
 11
193.195
 21
377.935
  0
LINE
  8
0
 10
193.195
 20
377.935
 11
193.671
 21
377.993
  0
LINE
  8
0
 10
193.671
 20
377.993
 11
194.118
 21
377.823
  0
LINE
  8
0
 10
194.118
 20
377.823
 11
194.435
 21
377.465
  0
LINE
  8
0
 10
194.435
 20
377.465
 11
194.55
 21
377
  0
LINE
  8
0
 10
194.55
 20
377
 11
194.435
 21
376.535
  0
LINE
  8
0
 10
194.435
 20
376.535
 11
194.118
 21
376.177
  0
LINE
  8
0
 10
194.118
 20
376.177
 11
193.671
 21
376.007
  0
LINE
  8
0
 10
193.671
 20
376.007
 11
193.195
 21
376.065
  0
LINE
  8
0
 10
-204.991
 20
368.015
 11
-205.459
 21
368.13
  0
LINE
  8
0
 10
-205.459
 20
368.13
 11
-205.886
 21
368.354
  0
LINE
  8
0
 10
-205.886
 20
368.354
 11
-206.247
 21
368.674
  0
LINE
  8
0
 10
-206.247
 20
368.674
 11
-206.521
 21
369.071
  0
LINE
  8
0
 10
-206.521
 20
369.071
 11
-206.692
 21
369.521
  0
LINE
  8
0
 10
-206.692
 20
369.521
 11
-206.75
 21
370
  0
LINE
  8
0
 10
-206.75
 20
370
 11
-206.692
 21
370.479
  0
LINE
  8
0
 10
-206.692
 20
370.479
 11
-206.521
 21
370.929
  0
LINE
  8
0
 10
-206.521
 20
370.929
 11
-206.247
 21
371.326
  0
LINE
  8
0
 10
-206.247
 20
371.326
 11
-205.886
 21
371.646
  0
LINE
  8
0
 10
-205.886
 20
371.646
 11
-205.459
 21
371.87
  0
LINE
  8
0
 10
-205.459
 20
371.87
 11
-204.991
 21
371.985
  0
LINE
  8
0
 10
-204.991
 20
371.985
 11
-204.509
 21
371.985
  0
LINE
  8
0
 10
-204.509
 20
371.985
 11
-204.041
 21
371.87
  0
LINE
  8
0
 10
-204.041
 20
371.87
 11
-203.614
 21
371.646
  0
LINE
  8
0
 10
-203.614
 20
371.646
 11
-203.253
 21
371.326
  0
LINE
  8
0
 10
-203.253
 20
371.326
 11
-202.979
 21
370.929
  0
LINE
  8
0
 10
-202.979
 20
370.929
 11
-202.808
 21
370.479
  0
LINE
  8
0
 10
-202.808
 20
370.479
 11
-202.75
 21
370
  0
LINE
  8
0
 10
-202.75
 20
370
 11
-202.808
 21
369.521
  0
LINE
  8
0
 10
-202.808
 20
369.521
 11
-202.979
 21
369.071
  0
LINE
  8
0
 10
-202.979
 20
369.071
 11
-203.253
 21
368.674
  0
LINE
  8
0
 10
-203.253
 20
368.674
 11
-203.614
 21
368.354
  0
LINE
  8
0
 10
-203.614
 20
368.354
 11
-204.041
 21
368.13
  0
LINE
  8
0
 10
-204.041
 20
368.13
 11
-204.509
 21
368.015
  0
LINE
  8
0
 10
-204.509
 20
368.015
 11
-204.991
 21
368.015
  0
LINE
  8
0
 10
-167.789
 20
351.319
 11
-168.213
 21
351.541
  0
LINE
  8
0
 10
-168.213
 20
351.541
 11
-168.485
 21
351.935
  0
LINE
  8
0
 10
-168.485
 20
351.935
 11
-168.543
 21
352.411
  0
LINE
  8
0
 10
-168.543
 20
352.411
 11
-168.373
 21
352.858
  0
LINE
  8
0
 10
-168.373
 20
352.858
 11
-168.015
 21
353.175
  0
LINE
  8
0
 10
-168.015
 20
353.175
 11
-167.55
 21
353.29
  0
LINE
  8
0
 10
-167.55
 20
353.29
 11
-167.085
 21
353.175
  0
LINE
  8
0
 10
-167.085
 20
353.175
 11
-166.727
 21
352.858
  0
LINE
  8
0
 10
-166.727
 20
352.858
 11
-166.557
 21
352.411
  0
LINE
  8
0
 10
-166.557
 20
352.411
 11
-166.615
 21
351.935
  0
LINE
  8
0
 10
-166.615
 20
351.935
 11
-166.887
 21
351.541
  0
LINE
  8
0
 10
-166.887
 20
351.541
 11
-167.311
 21
351.319
  0
LINE
  8
0
 10
-167.311
 20
351.319
 11
-167.789
 21
351.319
  0
LINE
  8
0
 10
131.585
 20
351.405
 11
131.227
 21
351.722
  0
LINE
  8
0
 10
131.227
 20
351.722
 11
131.057
 21
352.169
  0
LINE
  8
0
 10
131.057
 20
352.169
 11
131.115
 21
352.645
  0
LINE
  8
0
 10
131.115
 20
352.645
 11
131.387
 21
353.038
  0
LINE
  8
0
 10
131.387
 20
353.038
 11
131.811
 21
353.261
  0
LINE
  8
0
 10
131.811
 20
353.261
 11
132.289
 21
353.261
  0
LINE
  8
0
 10
132.289
 20
353.261
 11
132.713
 21
353.038
  0
LINE
  8
0
 10
132.713
 20
353.038
 11
132.985
 21
352.645
  0
LINE
  8
0
 10
132.985
 20
352.645
 11
133.043
 21
352.169
  0
LINE
  8
0
 10
133.043
 20
352.169
 11
132.873
 21
351.722
  0
LINE
  8
0
 10
132.873
 20
351.722
 11
132.515
 21
351.405
  0
LINE
  8
0
 10
132.515
 20
351.405
 11
132.05
 21
351.29
  0
LINE
  8
0
 10
132.05
 20
351.29
 11
131.585
 21
351.405
  0
LINE
  8
0
 10
-167.215
 20
322.295
 11
-167.573
 21
322.612
  0
LINE
  8
0
 10
-167.573
 20
322.612
 11
-167.743
 21
323.059
  0
LINE
  8
0
 10
-167.743
 20
323.059
 11
-167.685
 21
323.535
  0
LINE
  8
0
 10
-167.685
 20
323.535
 11
-167.413
 21
323.928
  0
LINE
  8
0
 10
-167.413
 20
323.928
 11
-166.989
 21
324.151
  0
LINE
  8
0
 10
-166.989
 20
324.151
 11
-166.511
 21
324.151
  0
LINE
  8
0
 10
-166.511
 20
324.151
 11
-166.087
 21
323.928
  0
LINE
  8
0
 10
-166.087
 20
323.928
 11
-165.815
 21
323.535
  0
LINE
  8
0
 10
-165.815
 20
323.535
 11
-165.757
 21
323.059
  0
LINE
  8
0
 10
-165.757
 20
323.059
 11
-165.927
 21
322.612
  0
LINE
  8
0
 10
-165.927
 20
322.612
 11
-166.285
 21
322.295
  0
LINE
  8
0
 10
-166.285
 20
322.295
 11
-166.75
 21
322.18
  0
LINE
  8
0
 10
-166.75
 20
322.18
 11
-167.215
 21
322.295
  0
LINE
  8
0
 10
130.785
 20
322.295
 11
130.427
 21
322.612
  0
LINE
  8
0
 10
130.427
 20
322.612
 11
130.257
 21
323.059
  0
LINE
  8
0
 10
130.257
 20
323.059
 11
130.315
 21
323.535
  0
LINE
  8
0
 10
130.315
 20
323.535
 11
130.587
 21
323.928
  0
LINE
  8
0
 10
130.587
 20
323.928
 11
131.011
 21
324.151
  0
LINE
  8
0
 10
131.011
 20
324.151
 11
131.489
 21
324.151
  0
LINE
  8
0
 10
131.489
 20
324.151
 11
131.913
 21
323.928
  0
LINE
  8
0
 10
131.913
 20
323.928
 11
132.185
 21
323.535
  0
LINE
  8
0
 10
132.185
 20
323.535
 11
132.243
 21
323.059
  0
LINE
  8
0
 10
132.243
 20
323.059
 11
132.073
 21
322.612
  0
LINE
  8
0
 10
132.073
 20
322.612
 11
131.715
 21
322.295
  0
LINE
  8
0
 10
131.715
 20
322.295
 11
131.25
 21
322.18
  0
LINE
  8
0
 10
131.25
 20
322.18
 11
130.785
 21
322.295
  0
LINE
  8
0
 10
-237.105
 20
153.565
 11
-237.499
 21
153.837
  0
LINE
  8
0
 10
-237.499
 20
153.837
 11
-237.721
 21
154.261
  0
LINE
  8
0
 10
-237.721
 20
154.261
 11
-237.721
 21
154.739
  0
LINE
  8
0
 10
-237.721
 20
154.739
 11
-237.499
 21
155.163
  0
LINE
  8
0
 10
-237.499
 20
155.163
 11
-237.105
 21
155.435
  0
LINE
  8
0
 10
-237.105
 20
155.435
 11
-236.629
 21
155.493
  0
LINE
  8
0
 10
-236.629
 20
155.493
 11
-236.182
 21
155.323
  0
LINE
  8
0
 10
-236.182
 20
155.323
 11
-235.865
 21
154.965
  0
LINE
  8
0
 10
-235.865
 20
154.965
 11
-235.75
 21
154.5
  0
LINE
  8
0
 10
-235.75
 20
154.5
 11
-235.865
 21
154.035
  0
LINE
  8
0
 10
-235.865
 20
154.035
 11
-236.182
 21
153.677
  0
LINE
  8
0
 10
-236.182
 20
153.677
 11
-236.629
 21
153.507
  0
LINE
  8
0
 10
-236.629
 20
153.507
 11
-237.105
 21
153.565
  0
LINE
  8
0
 10
-237.105
 20
112.165
 11
-237.499
 21
112.437
  0
LINE
  8
0
 10
-237.499
 20
112.437
 11
-237.721
 21
112.861
  0
LINE
  8
0
 10
-237.721
 20
112.861
 11
-237.721
 21
113.339
  0
LINE
  8
0
 10
-237.721
 20
113.339
 11
-237.499
 21
113.763
  0
LINE
  8
0
 10
-237.499
 20
113.763
 11
-237.105
 21
114.035
  0
LINE
  8
0
 10
-237.105
 20
114.035
 11
-236.629
 21
114.093
  0
LINE
  8
0
 10
-236.629
 20
114.093
 11
-236.182
 21
113.923
  0
LINE
  8
0
 10
-236.182
 20
113.923
 11
-235.865
 21
113.565
  0
LINE
  8
0
 10
-235.865
 20
113.565
 11
-235.75
 21
113.1
  0
LINE
  8
0
 10
-235.75
 20
113.1
 11
-235.865
 21
112.635
  0
LINE
  8
0
 10
-235.865
 20
112.635
 11
-236.182
 21
112.277
  0
LINE
  8
0
 10
-236.182
 20
112.277
 11
-236.629
 21
112.107
  0
LINE
  8
0
 10
-236.629
 20
112.107
 11
-237.105
 21
112.165
  0
LINE
  8
0
 10
-210.991
 20
71.0146
 11
-211.459
 21
71.13
  0
LINE
  8
0
 10
-211.459
 20
71.13
 11
-211.886
 21
71.354
  0
LINE
  8
0
 10
-211.886
 20
71.354
 11
-212.247
 21
71.6738
  0
LINE
  8
0
 10
-212.247
 20
71.6738
 11
-212.521
 21
72.0705
  0
LINE
  8
0
 10
-212.521
 20
72.0705
 11
-212.692
 21
72.5214
  0
LINE
  8
0
 10
-212.692
 20
72.5214
 11
-212.75
 21
73
  0
LINE
  8
0
 10
-212.75
 20
73
 11
-212.692
 21
73.4786
  0
LINE
  8
0
 10
-212.692
 20
73.4786
 11
-212.521
 21
73.9294
  0
LINE
  8
0
 10
-212.521
 20
73.9294
 11
-212.247
 21
74.3262
  0
LINE
  8
0
 10
-212.247
 20
74.3262
 11
-211.886
 21
74.646
  0
LINE
  8
0
 10
-211.886
 20
74.646
 11
-211.459
 21
74.87
  0
LINE
  8
0
 10
-211.459
 20
74.87
 11
-210.991
 21
74.9854
  0
LINE
  8
0
 10
-210.991
 20
74.9854
 11
-210.509
 21
74.9854
  0
LINE
  8
0
 10
-210.509
 20
74.9854
 11
-210.041
 21
74.87
  0
LINE
  8
0
 10
-210.041
 20
74.87
 11
-209.614
 21
74.646
  0
LINE
  8
0
 10
-209.614
 20
74.646
 11
-209.253
 21
74.3262
  0
LINE
  8
0
 10
-209.253
 20
74.3262
 11
-208.979
 21
73.9294
  0
LINE
  8
0
 10
-208.979
 20
73.9294
 11
-208.808
 21
73.4786
  0
LINE
  8
0
 10
-208.808
 20
73.4786
 11
-208.75
 21
73
  0
LINE
  8
0
 10
-208.75
 20
73
 11
-208.808
 21
72.5214
  0
LINE
  8
0
 10
-208.808
 20
72.5214
 11
-208.979
 21
72.0705
  0
LINE
  8
0
 10
-208.979
 20
72.0705
 11
-209.253
 21
71.6738
  0
LINE
  8
0
 10
-209.253
 20
71.6738
 11
-209.614
 21
71.354
  0
LINE
  8
0
 10
-209.614
 20
71.354
 11
-210.041
 21
71.13
  0
LINE
  8
0
 10
-210.041
 20
71.13
 11
-210.509
 21
71.0146
  0
LINE
  8
0
 10
-210.509
 20
71.0146
 11
-210.991
 21
71.0146
  0
LINE
  8
0
 10
-228.105
 20
60.065
 11
-228.499
 21
60.3369
  0
LINE
  8
0
 10
-228.499
 20
60.3369
 11
-228.721
 21
60.7607
  0
LINE
  8
0
 10
-228.721
 20
60.7607
 11
-228.721
 21
61.2393
  0
LINE
  8
0
 10
-228.721
 20
61.2393
 11
-228.499
 21
61.6631
  0
LINE
  8
0
 10
-228.499
 20
61.6631
 11
-228.105
 21
61.935
  0
LINE
  8
0
 10
-228.105
 20
61.935
 11
-227.629
 21
61.9927
  0
LINE
  8
0
 10
-227.629
 20
61.9927
 11
-227.182
 21
61.823
  0
LINE
  8
0
 10
-227.182
 20
61.823
 11
-226.865
 21
61.4647
  0
LINE
  8
0
 10
-226.865
 20
61.4647
 11
-226.75
 21
61
  0
LINE
  8
0
 10
-226.75
 20
61
 11
-226.865
 21
60.5353
  0
LINE
  8
0
 10
-226.865
 20
60.5353
 11
-227.182
 21
60.177
  0
LINE
  8
0
 10
-227.182
 20
60.177
 11
-227.629
 21
60.0073
  0
LINE
  8
0
 10
-227.629
 20
60.0073
 11
-228.105
 21
60.065
  0
LINE
  8
0
 10
150.895
 20
60.065
 11
150.501
 21
60.3369
  0
LINE
  8
0
 10
150.501
 20
60.3369
 11
150.279
 21
60.7607
  0
LINE
  8
0
 10
150.279
 20
60.7607
 11
150.279
 21
61.2393
  0
LINE
  8
0
 10
150.279
 20
61.2393
 11
150.501
 21
61.6631
  0
LINE
  8
0
 10
150.501
 20
61.6631
 11
150.895
 21
61.935
  0
LINE
  8
0
 10
150.895
 20
61.935
 11
151.371
 21
61.9927
  0
LINE
  8
0
 10
151.371
 20
61.9927
 11
151.818
 21
61.823
  0
LINE
  8
0
 10
151.818
 20
61.823
 11
152.135
 21
61.4647
  0
LINE
  8
0
 10
152.135
 20
61.4647
 11
152.25
 21
61
  0
LINE
  8
0
 10
152.25
 20
61
 11
152.135
 21
60.5353
  0
LINE
  8
0
 10
152.135
 20
60.5353
 11
151.818
 21
60.177
  0
LINE
  8
0
 10
151.818
 20
60.177
 11
151.371
 21
60.0073
  0
LINE
  8
0
 10
151.371
 20
60.0073
 11
150.895
 21
60.065
  0
LINE
  8
0
 10
182.895
 20
60.065
 11
182.501
 21
60.3369
  0
LINE
  8
0
 10
182.501
 20
60.3369
 11
182.279
 21
60.7607
  0
LINE
  8
0
 10
182.279
 20
60.7607
 11
182.279
 21
61.2393
  0
LINE
  8
0
 10
182.279
 20
61.2393
 11
182.501
 21
61.6631
  0
LINE
  8
0
 10
182.501
 20
61.6631
 11
182.895
 21
61.935
  0
LINE
  8
0
 10
182.895
 20
61.935
 11
183.371
 21
61.9927
  0
LINE
  8
0
 10
183.371
 20
61.9927
 11
183.818
 21
61.823
  0
LINE
  8
0
 10
183.818
 20
61.823
 11
184.135
 21
61.4647
  0
LINE
  8
0
 10
184.135
 20
61.4647
 11
184.25
 21
61
  0
LINE
  8
0
 10
184.25
 20
61
 11
184.135
 21
60.5353
  0
LINE
  8
0
 10
184.135
 20
60.5353
 11
183.818
 21
60.177
  0
LINE
  8
0
 10
183.818
 20
60.177
 11
183.371
 21
60.0073
  0
LINE
  8
0
 10
183.371
 20
60.0073
 11
182.895
 21
60.065
  0
LINE
  8
0
 10
-196.105
 20
60.065
 11
-196.499
 21
60.3369
  0
LINE
  8
0
 10
-196.499
 20
60.3369
 11
-196.721
 21
60.7607
  0
LINE
  8
0
 10
-196.721
 20
60.7607
 11
-196.721
 21
61.2393
  0
LINE
  8
0
 10
-196.721
 20
61.2393
 11
-196.499
 21
61.6631
  0
LINE
  8
0
 10
-196.499
 20
61.6631
 11
-196.105
 21
61.935
  0
LINE
  8
0
 10
-196.105
 20
61.935
 11
-195.629
 21
61.9927
  0
LINE
  8
0
 10
-195.629
 20
61.9927
 11
-195.182
 21
61.823
  0
LINE
  8
0
 10
-195.182
 20
61.823
 11
-194.865
 21
61.4647
  0
LINE
  8
0
 10
-194.865
 20
61.4647
 11
-194.75
 21
61
  0
LINE
  8
0
 10
-194.75
 20
61
 11
-194.865
 21
60.5353
  0
LINE
  8
0
 10
-194.865
 20
60.5353
 11
-195.182
 21
60.177
  0
LINE
  8
0
 10
-195.182
 20
60.177
 11
-195.629
 21
60.0073
  0
LINE
  8
0
 10
-195.629
 20
60.0073
 11
-196.105
 21
60.065
  0
LINE
  8
0
 10
-167.789
 20
35.739
 11
-168.213
 21
35.9615
  0
LINE
  8
0
 10
-168.213
 20
35.9615
 11
-168.485
 21
36.3554
  0
LINE
  8
0
 10
-168.485
 20
36.3554
 11
-168.543
 21
36.8305
  0
LINE
  8
0
 10
-168.543
 20
36.8305
 11
-168.373
 21
37.2781
  0
LINE
  8
0
 10
-168.373
 20
37.2781
 11
-168.015
 21
37.5954
  0
LINE
  8
0
 10
-168.015
 20
37.5954
 11
-167.55
 21
37.71
  0
LINE
  8
0
 10
-167.55
 20
37.71
 11
-167.085
 21
37.5954
  0
LINE
  8
0
 10
-167.085
 20
37.5954
 11
-166.727
 21
37.2781
  0
LINE
  8
0
 10
-166.727
 20
37.2781
 11
-166.557
 21
36.8305
  0
LINE
  8
0
 10
-166.557
 20
36.8305
 11
-166.615
 21
36.3554
  0
LINE
  8
0
 10
-166.615
 20
36.3554
 11
-166.887
 21
35.9615
  0
LINE
  8
0
 10
-166.887
 20
35.9615
 11
-167.311
 21
35.739
  0
LINE
  8
0
 10
-167.311
 20
35.739
 11
-167.789
 21
35.739
  0
LINE
  8
0
 10
131.585
 20
35.8245
 11
131.227
 21
36.1419
  0
LINE
  8
0
 10
131.227
 20
36.1419
 11
131.057
 21
36.5895
  0
LINE
  8
0
 10
131.057
 20
36.5895
 11
131.115
 21
37.0646
  0
LINE
  8
0
 10
131.115
 20
37.0646
 11
131.387
 21
37.4585
  0
LINE
  8
0
 10
131.387
 20
37.4585
 11
131.811
 21
37.6809
  0
LINE
  8
0
 10
131.811
 20
37.6809
 11
132.289
 21
37.6809
  0
LINE
  8
0
 10
132.289
 20
37.6809
 11
132.713
 21
37.4585
  0
LINE
  8
0
 10
132.713
 20
37.4585
 11
132.985
 21
37.0646
  0
LINE
  8
0
 10
132.985
 20
37.0646
 11
133.043
 21
36.5895
  0
LINE
  8
0
 10
133.043
 20
36.5895
 11
132.873
 21
36.1419
  0
LINE
  8
0
 10
132.873
 20
36.1419
 11
132.515
 21
35.8245
  0
LINE
  8
0
 10
132.515
 20
35.8245
 11
132.05
 21
35.71
  0
LINE
  8
0
 10
132.05
 20
35.71
 11
131.585
 21
35.8245
  0
LINE
  8
0
 10
233.511
 20
33.3291
 11
233.087
 21
33.5515
  0
LINE
  8
0
 10
233.087
 20
33.5515
 11
232.815
 21
33.9454
  0
LINE
  8
0
 10
232.815
 20
33.9454
 11
232.757
 21
34.4205
  0
LINE
  8
0
 10
232.757
 20
34.4205
 11
232.927
 21
34.8681
  0
LINE
  8
0
 10
232.927
 20
34.8681
 11
233.285
 21
35.1855
  0
LINE
  8
0
 10
233.285
 20
35.1855
 11
233.75
 21
35.3
  0
LINE
  8
0
 10
233.75
 20
35.3
 11
234.215
 21
35.1855
  0
LINE
  8
0
 10
234.215
 20
35.1855
 11
234.573
 21
34.8681
  0
LINE
  8
0
 10
234.573
 20
34.8681
 11
234.743
 21
34.4205
  0
LINE
  8
0
 10
234.743
 20
34.4205
 11
234.685
 21
33.9454
  0
LINE
  8
0
 10
234.685
 20
33.9454
 11
234.413
 21
33.5515
  0
LINE
  8
0
 10
234.413
 20
33.5515
 11
233.989
 21
33.3291
  0
LINE
  8
0
 10
233.989
 20
33.3291
 11
233.511
 21
33.3291
  0
LINE
  8
0
 10
165.762
 20
18.448
 11
165.293
 21
18.5903
  0
LINE
  8
0
 10
165.293
 20
18.5903
 11
164.861
 21
18.8213
  0
LINE
  8
0
 10
164.861
 20
18.8213
 11
164.482
 21
19.1322
  0
LINE
  8
0
 10
164.482
 20
19.1322
 11
164.171
 21
19.5111
  0
LINE
  8
0
 10
164.171
 20
19.5111
 11
163.94
 21
19.9433
  0
LINE
  8
0
 10
163.94
 20
19.9433
 11
163.798
 21
20.4123
  0
LINE
  8
0
 10
163.798
 20
20.4123
 11
163.75
 21
20.9
  0
LINE
  8
0
 10
163.75
 20
20.9
 11
163.798
 21
21.3877
  0
LINE
  8
0
 10
163.798
 20
21.3877
 11
163.94
 21
21.8567
  0
LINE
  8
0
 10
163.94
 20
21.8567
 11
164.171
 21
22.2889
  0
LINE
  8
0
 10
164.171
 20
22.2889
 11
164.482
 21
22.6678
  0
LINE
  8
0
 10
164.482
 20
22.6678
 11
164.861
 21
22.9787
  0
LINE
  8
0
 10
164.861
 20
22.9787
 11
165.293
 21
23.2097
  0
LINE
  8
0
 10
165.293
 20
23.2097
 11
165.762
 21
23.352
  0
LINE
  8
0
 10
165.762
 20
23.352
 11
166.25
 21
23.4
  0
LINE
  8
0
 10
166.25
 20
23.4
 11
166.738
 21
23.352
  0
LINE
  8
0
 10
166.738
 20
23.352
 11
167.207
 21
23.2097
  0
LINE
  8
0
 10
167.207
 20
23.2097
 11
167.639
 21
22.9787
  0
LINE
  8
0
 10
167.639
 20
22.9787
 11
168.018
 21
22.6678
  0
LINE
  8
0
 10
168.018
 20
22.6678
 11
168.329
 21
22.2889
  0
LINE
  8
0
 10
168.329
 20
22.2889
 11
168.56
 21
21.8567
  0
LINE
  8
0
 10
168.56
 20
21.8567
 11
168.702
 21
21.3877
  0
LINE
  8
0
 10
168.702
 20
21.3877
 11
168.75
 21
20.9
  0
LINE
  8
0
 10
168.75
 20
20.9
 11
168.702
 21
20.4123
  0
LINE
  8
0
 10
168.702
 20
20.4123
 11
168.56
 21
19.9433
  0
LINE
  8
0
 10
168.56
 20
19.9433
 11
168.329
 21
19.5111
  0
LINE
  8
0
 10
168.329
 20
19.5111
 11
168.018
 21
19.1322
  0
LINE
  8
0
 10
168.018
 20
19.1322
 11
167.639
 21
18.8213
  0
LINE
  8
0
 10
167.639
 20
18.8213
 11
167.207
 21
18.5903
  0
LINE
  8
0
 10
167.207
 20
18.5903
 11
166.738
 21
18.448
  0
LINE
  8
0
 10
166.738
 20
18.448
 11
166.25
 21
18.4
  0
LINE
  8
0
 10
166.25
 20
18.4
 11
165.762
 21
18.448
  0
LINE
  8
0
 10
-201.618
 20
5.04803
 11
-202.087
 21
5.19029
  0
LINE
  8
0
 10
-202.087
 20
5.19029
 11
-202.519
 21
5.42133
  0
LINE
  8
0
 10
-202.519
 20
5.42133
 11
-202.898
 21
5.73222
  0
LINE
  8
0
 10
-202.898
 20
5.73222
 11
-203.209
 21
6.11107
  0
LINE
  8
0
 10
-203.209
 20
6.11107
 11
-203.44
 21
6.54329
  0
LINE
  8
0
 10
-203.44
 20
6.54329
 11
-203.582
 21
7.01227
  0
LINE
  8
0
 10
-203.582
 20
7.01227
 11
-203.63
 21
7.5
  0
LINE
  8
0
 10
-203.63
 20
7.5
 11
-203.582
 21
7.98772
  0
LINE
  8
0
 10
-203.582
 20
7.98772
 11
-203.44
 21
8.4567
  0
LINE
  8
0
 10
-203.44
 20
8.4567
 11
-203.209
 21
8.88892
  0
LINE
  8
0
 10
-203.209
 20
8.88892
 11
-202.898
 21
9.26776
  0
LINE
  8
0
 10
-202.898
 20
9.26776
 11
-202.519
 21
9.57866
  0
LINE
  8
0
 10
-202.519
 20
9.57866
 11
-202.087
 21
9.80969
  0
LINE
  8
0
 10
-202.087
 20
9.80969
 11
-201.618
 21
9.95195
  0
LINE
  8
0
 10
-201.618
 20
9.95195
 11
-201.13
 21
10
  0
LINE
  8
0
 10
-201.13
 20
10
 11
-200.642
 21
9.95195
  0
LINE
  8
0
 10
-200.642
 20
9.95195
 11
-200.173
 21
9.80969
  0
LINE
  8
0
 10
-200.173
 20
9.80969
 11
-199.741
 21
9.57866
  0
LINE
  8
0
 10
-199.741
 20
9.57866
 11
-199.362
 21
9.26776
  0
LINE
  8
0
 10
-199.362
 20
9.26776
 11
-199.051
 21
8.88892
  0
LINE
  8
0
 10
-199.051
 20
8.88892
 11
-198.82
 21
8.4567
  0
LINE
  8
0
 10
-198.82
 20
8.4567
 11
-198.678
 21
7.98772
  0
LINE
  8
0
 10
-198.678
 20
7.98772
 11
-198.63
 21
7.5
  0
LINE
  8
0
 10
-198.63
 20
7.5
 11
-198.678
 21
7.01227
  0
LINE
  8
0
 10
-198.678
 20
7.01227
 11
-198.82
 21
6.54329
  0
LINE
  8
0
 10
-198.82
 20
6.54329
 11
-199.051
 21
6.11107
  0
LINE
  8
0
 10
-199.051
 20
6.11107
 11
-199.362
 21
5.73222
  0
LINE
  8
0
 10
-199.362
 20
5.73222
 11
-199.741
 21
5.42133
  0
LINE
  8
0
 10
-199.741
 20
5.42133
 11
-200.173
 21
5.19029
  0
LINE
  8
0
 10
-200.173
 20
5.19029
 11
-200.642
 21
5.04803
  0
LINE
  8
0
 10
-200.642
 20
5.04803
 11
-201.13
 21
5
  0
LINE
  8
0
 10
-201.13
 20
5
 11
-201.618
 21
5.04803
  0
LINE
  8
0
 10
-213.898
 20
7.37701
 11
-214.215
 21
7.73528
  0
LINE
  8
0
 10
-214.215
 20
7.73528
 11
-214.33
 21
8.2
  0
LINE
  8
0
 10
-214.33
 20
8.2
 11
-214.215
 21
8.66472
  0
LINE
  8
0
 10
-214.215
 20
8.66472
 11
-213.898
 21
9.02298
  0
LINE
  8
0
 10
-213.898
 20
9.02298
 11
-213.451
 21
9.1927
  0
LINE
  8
0
 10
-213.451
 20
9.1927
 11
-212.975
 21
9.13501
  0
LINE
  8
0
 10
-212.975
 20
9.13501
 11
-212.581
 21
8.86311
  0
LINE
  8
0
 10
-212.581
 20
8.86311
 11
-212.359
 21
8.4393
  0
LINE
  8
0
 10
-212.359
 20
8.4393
 11
-212.359
 21
7.96068
  0
LINE
  8
0
 10
-212.359
 20
7.96068
 11
-212.581
 21
7.53687
  0
LINE
  8
0
 10
-212.581
 20
7.53687
 11
-212.975
 21
7.26497
  0
LINE
  8
0
 10
-212.975
 20
7.26497
 11
-213.451
 21
7.20729
  0
LINE
  8
0
 10
-213.451
 20
7.20729
 11
-213.898
 21
7.37701
  0
LINE
  8
0
 10
212.762
 20
7.37701
 11
212.445
 21
7.73528
  0
LINE
  8
0
 10
212.445
 20
7.73528
 11
212.33
 21
8.2
  0
LINE
  8
0
 10
212.33
 20
8.2
 11
212.445
 21
8.66472
  0
LINE
  8
0
 10
212.445
 20
8.66472
 11
212.762
 21
9.02298
  0
LINE
  8
0
 10
212.762
 20
9.02298
 11
213.209
 21
9.1927
  0
LINE
  8
0
 10
213.209
 20
9.1927
 11
213.685
 21
9.13501
  0
LINE
  8
0
 10
213.685
 20
9.13501
 11
214.079
 21
8.86311
  0
LINE
  8
0
 10
214.079
 20
8.86311
 11
214.301
 21
8.4393
  0
LINE
  8
0
 10
214.301
 20
8.4393
 11
214.301
 21
7.96068
  0
LINE
  8
0
 10
214.301
 20
7.96068
 11
214.079
 21
7.53687
  0
LINE
  8
0
 10
214.079
 20
7.53687
 11
213.685
 21
7.26497
  0
LINE
  8
0
 10
213.685
 20
7.26497
 11
213.209
 21
7.20729
  0
LINE
  8
0
 10
213.209
 20
7.20729
 11
212.762
 21
7.37701
  0
LINE
  8
0
 10
182.602
 20
7.37701
 11
182.285
 21
7.73528
  0
LINE
  8
0
 10
182.285
 20
7.73528
 11
182.17
 21
8.2
  0
LINE
  8
0
 10
182.17
 20
8.2
 11
182.285
 21
8.66472
  0
LINE
  8
0
 10
182.285
 20
8.66472
 11
182.602
 21
9.02298
  0
LINE
  8
0
 10
182.602
 20
9.02298
 11
183.049
 21
9.1927
  0
LINE
  8
0
 10
183.049
 20
9.1927
 11
183.525
 21
9.13501
  0
LINE
  8
0
 10
183.525
 20
9.13501
 11
183.919
 21
8.86311
  0
LINE
  8
0
 10
183.919
 20
8.86311
 11
184.141
 21
8.4393
  0
LINE
  8
0
 10
184.141
 20
8.4393
 11
184.141
 21
7.96068
  0
LINE
  8
0
 10
184.141
 20
7.96068
 11
183.919
 21
7.53687
  0
LINE
  8
0
 10
183.919
 20
7.53687
 11
183.525
 21
7.26497
  0
LINE
  8
0
 10
183.525
 20
7.26497
 11
183.049
 21
7.20729
  0
LINE
  8
0
 10
183.049
 20
7.20729
 11
182.602
 21
7.37701
  0
LINE
  8
0
 10
161.382
 20
7.37701
 11
161.065
 21
7.73528
  0
LINE
  8
0
 10
161.065
 20
7.73528
 11
160.95
 21
8.2
  0
LINE
  8
0
 10
160.95
 20
8.2
 11
161.065
 21
8.66472
  0
LINE
  8
0
 10
161.065
 20
8.66472
 11
161.382
 21
9.02298
  0
LINE
  8
0
 10
161.382
 20
9.02298
 11
161.829
 21
9.1927
  0
LINE
  8
0
 10
161.829
 20
9.1927
 11
162.305
 21
9.13501
  0
LINE
  8
0
 10
162.305
 20
9.13501
 11
162.699
 21
8.86311
  0
LINE
  8
0
 10
162.699
 20
8.86311
 11
162.921
 21
8.4393
  0
LINE
  8
0
 10
162.921
 20
8.4393
 11
162.921
 21
7.96068
  0
LINE
  8
0
 10
162.921
 20
7.96068
 11
162.699
 21
7.53687
  0
LINE
  8
0
 10
162.699
 20
7.53687
 11
162.305
 21
7.26497
  0
LINE
  8
0
 10
162.305
 20
7.26497
 11
161.829
 21
7.20729
  0
LINE
  8
0
 10
161.829
 20
7.20729
 11
161.382
 21
7.37701
  0
LINE
  8
0
 10
-235.118
 20
7.37701
 11
-235.435
 21
7.73528
  0
LINE
  8
0
 10
-235.435
 20
7.73528
 11
-235.55
 21
8.2
  0
LINE
  8
0
 10
-235.55
 20
8.2
 11
-235.435
 21
8.66472
  0
LINE
  8
0
 10
-235.435
 20
8.66472
 11
-235.118
 21
9.02298
  0
LINE
  8
0
 10
-235.118
 20
9.02298
 11
-234.671
 21
9.1927
  0
LINE
  8
0
 10
-234.671
 20
9.1927
 11
-234.195
 21
9.13501
  0
LINE
  8
0
 10
-234.195
 20
9.13501
 11
-233.801
 21
8.86311
  0
LINE
  8
0
 10
-233.801
 20
8.86311
 11
-233.579
 21
8.4393
  0
LINE
  8
0
 10
-233.579
 20
8.4393
 11
-233.579
 21
7.96068
  0
LINE
  8
0
 10
-233.579
 20
7.96068
 11
-233.801
 21
7.53687
  0
LINE
  8
0
 10
-233.801
 20
7.53687
 11
-234.195
 21
7.26497
  0
LINE
  8
0
 10
-234.195
 20
7.26497
 11
-234.671
 21
7.20729
  0
LINE
  8
0
 10
-234.671
 20
7.20729
 11
-235.118
 21
7.37701
  0
LINE
  8
0
 10
233.982
 20
7.37701
 11
233.665
 21
7.73528
  0
LINE
  8
0
 10
233.665
 20
7.73528
 11
233.55
 21
8.2
  0
LINE
  8
0
 10
233.55
 20
8.2
 11
233.665
 21
8.66472
  0
LINE
  8
0
 10
233.665
 20
8.66472
 11
233.982
 21
9.02298
  0
LINE
  8
0
 10
233.982
 20
9.02298
 11
234.429
 21
9.1927
  0
LINE
  8
0
 10
234.429
 20
9.1927
 11
234.905
 21
9.13501
  0
LINE
  8
0
 10
234.905
 20
9.13501
 11
235.299
 21
8.86311
  0
LINE
  8
0
 10
235.299
 20
8.86311
 11
235.521
 21
8.4393
  0
LINE
  8
0
 10
235.521
 20
8.4393
 11
235.521
 21
7.96068
  0
LINE
  8
0
 10
235.521
 20
7.96068
 11
235.299
 21
7.53687
  0
LINE
  8
0
 10
235.299
 20
7.53687
 11
234.905
 21
7.26497
  0
LINE
  8
0
 10
234.905
 20
7.26497
 11
234.429
 21
7.20729
  0
LINE
  8
0
 10
234.429
 20
7.20729
 11
233.982
 21
7.37701
  0
LINE
  8
0
 10
-162.738
 20
7.37701
 11
-163.055
 21
7.73528
  0
LINE
  8
0
 10
-163.055
 20
7.73528
 11
-163.17
 21
8.2
  0
LINE
  8
0
 10
-163.17
 20
8.2
 11
-163.055
 21
8.66472
  0
LINE
  8
0
 10
-163.055
 20
8.66472
 11
-162.738
 21
9.02298
  0
LINE
  8
0
 10
-162.738
 20
9.02298
 11
-162.291
 21
9.1927
  0
LINE
  8
0
 10
-162.291
 20
9.1927
 11
-161.815
 21
9.13501
  0
LINE
  8
0
 10
-161.815
 20
9.13501
 11
-161.421
 21
8.86311
  0
LINE
  8
0
 10
-161.421
 20
8.86311
 11
-161.199
 21
8.4393
  0
LINE
  8
0
 10
-161.199
 20
8.4393
 11
-161.199
 21
7.96068
  0
LINE
  8
0
 10
-161.199
 20
7.96068
 11
-161.421
 21
7.53687
  0
LINE
  8
0
 10
-161.421
 20
7.53687
 11
-161.815
 21
7.26497
  0
LINE
  8
0
 10
-161.815
 20
7.26497
 11
-162.291
 21
7.20729
  0
LINE
  8
0
 10
-162.291
 20
7.20729
 11
-162.738
 21
7.37701
  0
LINE
  8
0
 10
-141.518
 20
7.37701
 11
-141.835
 21
7.73528
  0
LINE
  8
0
 10
-141.835
 20
7.73528
 11
-141.95
 21
8.2
  0
LINE
  8
0
 10
-141.95
 20
8.2
 11
-141.835
 21
8.66472
  0
LINE
  8
0
 10
-141.835
 20
8.66472
 11
-141.518
 21
9.02298
  0
LINE
  8
0
 10
-141.518
 20
9.02298
 11
-141.071
 21
9.1927
  0
LINE
  8
0
 10
-141.071
 20
9.1927
 11
-140.595
 21
9.13501
  0
LINE
  8
0
 10
-140.595
 20
9.13501
 11
-140.201
 21
8.86311
  0
LINE
  8
0
 10
-140.201
 20
8.86311
 11
-139.979
 21
8.4393
  0
LINE
  8
0
 10
-139.979
 20
8.4393
 11
-139.979
 21
7.96068
  0
LINE
  8
0
 10
-139.979
 20
7.96068
 11
-140.201
 21
7.53687
  0
LINE
  8
0
 10
-140.201
 20
7.53687
 11
-140.595
 21
7.26497
  0
LINE
  8
0
 10
-140.595
 20
7.26497
 11
-141.071
 21
7.20729
  0
LINE
  8
0
 10
-141.071
 20
7.20729
 11
-141.518
 21
7.37701
  0
LINE
  8
0
 10
98.9977
 20
0.0102386
 11
99.4865
 21
0.0917969
  0
LINE
  8
0
 10
99.4865
 20
0.0917969
 11
99.9551
 21
0.25267
  0
LINE
  8
0
 10
99.9551
 20
0.25267
 11
100.391
 21
0.488495
  0
LINE
  8
0
 10
100.391
 20
0.488495
 11
100.782
 21
0.792816
  0
LINE
  8
0
 10
100.782
 20
0.792816
 11
101.117
 21
1.15735
  0
LINE
  8
0
 10
101.117
 20
1.15735
 11
101.388
 21
1.57214
  0
LINE
  8
0
 10
101.388
 20
1.57214
 11
101.587
 21
2.02589
  0
LINE
  8
0
 10
101.587
 20
2.02589
 11
101.709
 21
2.50621
  0
LINE
  8
0
 10
101.709
 20
2.50621
 11
101.75
 21
3
  0
LINE
  8
0
 10
101.75
 20
3
 11
101.74
 21
214.248
  0
LINE
  8
0
 10
101.74
 20
214.248
 11
101.658
 21
214.736
  0
LINE
  8
0
 10
101.658
 20
214.736
 11
101.497
 21
215.205
  0
LINE
  8
0
 10
101.497
 20
215.205
 11
101.261
 21
215.641
  0
LINE
  8
0
 10
101.261
 20
215.641
 11
100.957
 21
216.032
  0
LINE
  8
0
 10
100.957
 20
216.032
 11
100.593
 21
216.367
  0
LINE
  8
0
 10
100.593
 20
216.367
 11
100.178
 21
216.638
  0
LINE
  8
0
 10
100.178
 20
216.638
 11
99.7241
 21
216.837
  0
LINE
  8
0
 10
99.7241
 20
216.837
 11
99.2438
 21
216.959
  0
LINE
  8
0
 10
99.2438
 20
216.959
 11
98.75
 21
217
  0
LINE
  8
0
 10
98.75
 20
217
 11
11.76
 21
216.996
  0
LINE
  8
0
 10
11.76
 20
216.996
 11
11.76
 21
211.15
  0
LINE
  8
0
 10
11.76
 20
211.15
 11
-25.26
 21
211.15
  0
LINE
  8
0
 10
-25.26
 20
211.15
 11
-25.26
 21
216.994
  0
LINE
  8
0
 10
-25.26
 20
216.994
 11
-112.498
 21
216.99
  0
LINE
  8
0
 10
-112.498
 20
216.99
 11
-112.986
 21
216.908
  0
LINE
  8
0
 10
-112.986
 20
216.908
 11
-113.455
 21
216.747
  0
LINE
  8
0
 10
-113.455
 20
216.747
 11
-113.891
 21
216.511
  0
LINE
  8
0
 10
-113.891
 20
216.511
 11
-114.282
 21
216.207
  0
LINE
  8
0
 10
-114.282
 20
216.207
 11
-114.617
 21
215.843
  0
LINE
  8
0
 10
-114.617
 20
215.843
 11
-114.888
 21
215.428
  0
LINE
  8
0
 10
-114.888
 20
215.428
 11
-115.087
 21
214.974
  0
LINE
  8
0
 10
-115.087
 20
214.974
 11
-115.209
 21
214.494
  0
LINE
  8
0
 10
-115.209
 20
214.494
 11
-115.25
 21
214
  0
LINE
  8
0
 10
-115.25
 20
214
 11
-115.24
 21
2.75226
  0
LINE
  8
0
 10
-115.24
 20
2.75226
 11
-115.158
 21
2.26353
  0
LINE
  8
0
 10
-115.158
 20
2.26353
 11
-114.997
 21
1.79491
  0
LINE
  8
0
 10
-114.997
 20
1.79491
 11
-114.761
 21
1.35915
  0
LINE
  8
0
 10
-114.761
 20
1.35915
 11
-114.457
 21
0.968155
  0
LINE
  8
0
 10
-114.457
 20
0.968155
 11
-114.093
 21
0.632568
  0
LINE
  8
0
 10
-114.093
 20
0.632568
 11
-113.678
 21
0.361572
  0
LINE
  8
0
 10
-113.678
 20
0.361572
 11
-113.224
 21
0.162537
  0
LINE
  8
0
 10
-113.224
 20
0.162537
 11
-112.744
 21
0.0409088
  0
LINE
  8
0
 10
-112.744
 20
0.0409088
 11
-112.25
 21
0
  0
LINE
  8
0
 10
-112.25
 20
0
 11
98.9977
 21
0.0102386
  0
LINE
  8
0
 10
97.2716
 20
211.845
 11
96.8661
 21
212.116
  0
LINE
  8
0
 10
96.8661
 20
212.116
 11
96.5951
 21
212.522
  0
LINE
  8
0
 10
96.5951
 20
212.522
 11
96.5
 21
213
  0
LINE
  8
0
 10
96.5
 20
213
 11
96.5951
 21
213.478
  0
LINE
  8
0
 10
96.5951
 20
213.478
 11
96.8661
 21
213.884
  0
LINE
  8
0
 10
96.8661
 20
213.884
 11
97.2716
 21
214.155
  0
LINE
  8
0
 10
97.2716
 20
214.155
 11
97.75
 21
214.25
  0
LINE
  8
0
 10
97.75
 20
214.25
 11
98.2283
 21
214.155
  0
LINE
  8
0
 10
98.2283
 20
214.155
 11
98.6339
 21
213.884
  0
LINE
  8
0
 10
98.6339
 20
213.884
 11
98.9048
 21
213.478
  0
LINE
  8
0
 10
98.9048
 20
213.478
 11
99
 21
213
  0
LINE
  8
0
 10
99
 20
213
 11
98.9048
 21
212.522
  0
LINE
  8
0
 10
98.9048
 20
212.522
 11
98.6339
 21
212.116
  0
LINE
  8
0
 10
98.6339
 20
212.116
 11
98.2283
 21
211.845
  0
LINE
  8
0
 10
98.2283
 20
211.845
 11
97.75
 21
211.75
  0
LINE
  8
0
 10
97.75
 20
211.75
 11
97.2716
 21
211.845
  0
LINE
  8
0
 10
-111.728
 20
211.845
 11
-112.134
 21
212.116
  0
LINE
  8
0
 10
-112.134
 20
212.116
 11
-112.405
 21
212.522
  0
LINE
  8
0
 10
-112.405
 20
212.522
 11
-112.5
 21
213
  0
LINE
  8
0
 10
-112.5
 20
213
 11
-112.405
 21
213.478
  0
LINE
  8
0
 10
-112.405
 20
213.478
 11
-112.134
 21
213.884
  0
LINE
  8
0
 10
-112.134
 20
213.884
 11
-111.728
 21
214.155
  0
LINE
  8
0
 10
-111.728
 20
214.155
 11
-111.25
 21
214.25
  0
LINE
  8
0
 10
-111.25
 20
214.25
 11
-110.772
 21
214.155
  0
LINE
  8
0
 10
-110.772
 20
214.155
 11
-110.366
 21
213.884
  0
LINE
  8
0
 10
-110.366
 20
213.884
 11
-110.095
 21
213.478
  0
LINE
  8
0
 10
-110.095
 20
213.478
 11
-110
 21
213
  0
LINE
  8
0
 10
-110
 20
213
 11
-110.095
 21
212.522
  0
LINE
  8
0
 10
-110.095
 20
212.522
 11
-110.366
 21
212.116
  0
LINE
  8
0
 10
-110.366
 20
212.116
 11
-110.772
 21
211.845
  0
LINE
  8
0
 10
-110.772
 20
211.845
 11
-111.25
 21
211.75
  0
LINE
  8
0
 10
-111.25
 20
211.75
 11
-111.728
 21
211.845
  0
LINE
  8
0
 10
13.9704
 20
203.155
 11
13.5054
 21
203.318
  0
LINE
  8
0
 10
13.5054
 20
203.318
 11
13.0883
 21
203.58
  0
LINE
  8
0
 10
13.0883
 20
203.58
 11
12.74
 21
203.928
  0
LINE
  8
0
 10
12.74
 20
203.928
 11
12.4779
 21
204.345
  0
LINE
  8
0
 10
12.4779
 20
204.345
 11
12.3152
 21
204.81
  0
LINE
  8
0
 10
12.3152
 20
204.81
 11
12.26
 21
205.3
  0
LINE
  8
0
 10
12.26
 20
205.3
 11
12.3152
 21
205.79
  0
LINE
  8
0
 10
12.3152
 20
205.79
 11
12.4779
 21
206.255
  0
LINE
  8
0
 10
12.4779
 20
206.255
 11
12.74
 21
206.672
  0
LINE
  8
0
 10
12.74
 20
206.672
 11
13.0883
 21
207.02
  0
LINE
  8
0
 10
13.0883
 20
207.02
 11
13.5054
 21
207.282
  0
LINE
  8
0
 10
13.5054
 20
207.282
 11
13.9704
 21
207.445
  0
LINE
  8
0
 10
13.9704
 20
207.445
 11
14.46
 21
207.5
  0
LINE
  8
0
 10
14.46
 20
207.5
 11
14.9495
 21
207.445
  0
LINE
  8
0
 10
14.9495
 20
207.445
 11
15.4145
 21
207.282
  0
LINE
  8
0
 10
15.4145
 20
207.282
 11
15.8317
 21
207.02
  0
LINE
  8
0
 10
15.8317
 20
207.02
 11
16.18
 21
206.672
  0
LINE
  8
0
 10
16.18
 20
206.672
 11
16.4421
 21
206.255
  0
LINE
  8
0
 10
16.4421
 20
206.255
 11
16.6048
 21
205.79
  0
LINE
  8
0
 10
16.6048
 20
205.79
 11
16.66
 21
205.3
  0
LINE
  8
0
 10
16.66
 20
205.3
 11
16.6048
 21
204.81
  0
LINE
  8
0
 10
16.6048
 20
204.81
 11
16.4421
 21
204.345
  0
LINE
  8
0
 10
16.4421
 20
204.345
 11
16.18
 21
203.928
  0
LINE
  8
0
 10
16.18
 20
203.928
 11
15.8317
 21
203.58
  0
LINE
  8
0
 10
15.8317
 20
203.58
 11
15.4145
 21
203.318
  0
LINE
  8
0
 10
15.4145
 20
203.318
 11
14.9495
 21
203.155
  0
LINE
  8
0
 10
14.9495
 20
203.155
 11
14.46
 21
203.1
  0
LINE
  8
0
 10
14.46
 20
203.1
 11
13.9704
 21
203.155
  0
LINE
  8
0
 10
-28.4495
 20
203.155
 11
-28.9145
 21
203.318
  0
LINE
  8
0
 10
-28.9145
 20
203.318
 11
-29.3317
 21
203.58
  0
LINE
  8
0
 10
-29.3317
 20
203.58
 11
-29.68
 21
203.928
  0
LINE
  8
0
 10
-29.68
 20
203.928
 11
-29.9421
 21
204.345
  0
LINE
  8
0
 10
-29.9421
 20
204.345
 11
-30.1048
 21
204.81
  0
LINE
  8
0
 10
-30.1048
 20
204.81
 11
-30.16
 21
205.3
  0
LINE
  8
0
 10
-30.16
 20
205.3
 11
-30.1048
 21
205.79
  0
LINE
  8
0
 10
-30.1048
 20
205.79
 11
-29.9421
 21
206.255
  0
LINE
  8
0
 10
-29.9421
 20
206.255
 11
-29.68
 21
206.672
  0
LINE
  8
0
 10
-29.68
 20
206.672
 11
-29.3317
 21
207.02
  0
LINE
  8
0
 10
-29.3317
 20
207.02
 11
-28.9145
 21
207.282
  0
LINE
  8
0
 10
-28.9145
 20
207.282
 11
-28.4495
 21
207.445
  0
LINE
  8
0
 10
-28.4495
 20
207.445
 11
-27.96
 21
207.5
  0
LINE
  8
0
 10
-27.96
 20
207.5
 11
-27.4704
 21
207.445
  0
LINE
  8
0
 10
-27.4704
 20
207.445
 11
-27.0054
 21
207.282
  0
LINE
  8
0
 10
-27.0054
 20
207.282
 11
-26.5883
 21
207.02
  0
LINE
  8
0
 10
-26.5883
 20
207.02
 11
-26.24
 21
206.672
  0
LINE
  8
0
 10
-26.24
 20
206.672
 11
-25.9779
 21
206.255
  0
LINE
  8
0
 10
-25.9779
 20
206.255
 11
-25.8152
 21
205.79
  0
LINE
  8
0
 10
-25.8152
 20
205.79
 11
-25.76
 21
205.3
  0
LINE
  8
0
 10
-25.76
 20
205.3
 11
-25.8152
 21
204.81
  0
LINE
  8
0
 10
-25.8152
 20
204.81
 11
-25.9779
 21
204.345
  0
LINE
  8
0
 10
-25.9779
 20
204.345
 11
-26.24
 21
203.928
  0
LINE
  8
0
 10
-26.24
 20
203.928
 11
-26.5883
 21
203.58
  0
LINE
  8
0
 10
-26.5883
 20
203.58
 11
-27.0054
 21
203.318
  0
LINE
  8
0
 10
-27.0054
 20
203.318
 11
-27.4704
 21
203.155
  0
LINE
  8
0
 10
-27.4704
 20
203.155
 11
-27.96
 21
203.1
  0
LINE
  8
0
 10
-27.96
 20
203.1
 11
-28.4495
 21
203.155
  0
LINE
  8
0
 10
-72.2395
 20
194.355
 11
-72.7045
 21
194.518
  0
LINE
  8
0
 10
-72.7045
 20
194.518
 11
-73.1217
 21
194.78
  0
LINE
  8
0
 10
-73.1217
 20
194.78
 11
-73.47
 21
195.128
  0
LINE
  8
0
 10
-73.47
 20
195.128
 11
-73.7321
 21
195.545
  0
LINE
  8
0
 10
-73.7321
 20
195.545
 11
-73.8948
 21
196.01
  0
LINE
  8
0
 10
-73.8948
 20
196.01
 11
-73.95
 21
196.5
  0
LINE
  8
0
 10
-73.95
 20
196.5
 11
-73.8948
 21
196.99
  0
LINE
  8
0
 10
-73.8948
 20
196.99
 11
-73.7321
 21
197.455
  0
LINE
  8
0
 10
-73.7321
 20
197.455
 11
-73.47
 21
197.872
  0
LINE
  8
0
 10
-73.47
 20
197.872
 11
-73.1217
 21
198.22
  0
LINE
  8
0
 10
-73.1217
 20
198.22
 11
-72.7045
 21
198.482
  0
LINE
  8
0
 10
-72.7045
 20
198.482
 11
-72.2395
 21
198.645
  0
LINE
  8
0
 10
-72.2395
 20
198.645
 11
-71.75
 21
198.7
  0
LINE
  8
0
 10
-71.75
 20
198.7
 11
-71.2605
 21
198.645
  0
LINE
  8
0
 10
-71.2605
 20
198.645
 11
-70.7955
 21
198.482
  0
LINE
  8
0
 10
-70.7955
 20
198.482
 11
-70.3783
 21
198.22
  0
LINE
  8
0
 10
-70.3783
 20
198.22
 11
-70.03
 21
197.872
  0
LINE
  8
0
 10
-70.03
 20
197.872
 11
-69.7679
 21
197.455
  0
LINE
  8
0
 10
-69.7679
 20
197.455
 11
-69.6051
 21
196.99
  0
LINE
  8
0
 10
-69.6051
 20
196.99
 11
-69.55
 21
196.5
  0
LINE
  8
0
 10
-69.55
 20
196.5
 11
-69.6051
 21
196.01
  0
LINE
  8
0
 10
-69.6051
 20
196.01
 11
-69.7679
 21
195.545
  0
LINE
  8
0
 10
-69.7679
 20
195.545
 11
-70.03
 21
195.128
  0
LINE
  8
0
 10
-70.03
 20
195.128
 11
-70.3783
 21
194.78
  0
LINE
  8
0
 10
-70.3783
 20
194.78
 11
-70.7955
 21
194.518
  0
LINE
  8
0
 10
-70.7955
 20
194.518
 11
-71.2605
 21
194.355
  0
LINE
  8
0
 10
-71.2605
 20
194.355
 11
-71.75
 21
194.3
  0
LINE
  8
0
 10
-71.75
 20
194.3
 11
-72.2395
 21
194.355
  0
LINE
  8
0
 10
-109.24
 20
170.355
 11
-109.705
 21
170.518
  0
LINE
  8
0
 10
-109.705
 20
170.518
 11
-110.122
 21
170.78
  0
LINE
  8
0
 10
-110.122
 20
170.78
 11
-110.47
 21
171.128
  0
LINE
  8
0
 10
-110.47
 20
171.128
 11
-110.732
 21
171.545
  0
LINE
  8
0
 10
-110.732
 20
171.545
 11
-110.895
 21
172.01
  0
LINE
  8
0
 10
-110.895
 20
172.01
 11
-110.95
 21
172.5
  0
LINE
  8
0
 10
-110.95
 20
172.5
 11
-110.895
 21
172.99
  0
LINE
  8
0
 10
-110.895
 20
172.99
 11
-110.732
 21
173.455
  0
LINE
  8
0
 10
-110.732
 20
173.455
 11
-110.47
 21
173.872
  0
LINE
  8
0
 10
-110.47
 20
173.872
 11
-110.122
 21
174.22
  0
LINE
  8
0
 10
-110.122
 20
174.22
 11
-109.705
 21
174.482
  0
LINE
  8
0
 10
-109.705
 20
174.482
 11
-109.24
 21
174.645
  0
LINE
  8
0
 10
-109.24
 20
174.645
 11
-108.75
 21
174.7
  0
LINE
  8
0
 10
-108.75
 20
174.7
 11
-108.26
 21
174.645
  0
LINE
  8
0
 10
-108.26
 20
174.645
 11
-107.795
 21
174.482
  0
LINE
  8
0
 10
-107.795
 20
174.482
 11
-107.378
 21
174.22
  0
LINE
  8
0
 10
-107.378
 20
174.22
 11
-107.03
 21
173.872
  0
LINE
  8
0
 10
-107.03
 20
173.872
 11
-106.768
 21
173.455
  0
LINE
  8
0
 10
-106.768
 20
173.455
 11
-106.605
 21
172.99
  0
LINE
  8
0
 10
-106.605
 20
172.99
 11
-106.55
 21
172.5
  0
LINE
  8
0
 10
-106.55
 20
172.5
 11
-106.605
 21
172.01
  0
LINE
  8
0
 10
-106.605
 20
172.01
 11
-106.768
 21
171.545
  0
LINE
  8
0
 10
-106.768
 20
171.545
 11
-107.03
 21
171.128
  0
LINE
  8
0
 10
-107.03
 20
171.128
 11
-107.378
 21
170.78
  0
LINE
  8
0
 10
-107.378
 20
170.78
 11
-107.795
 21
170.518
  0
LINE
  8
0
 10
-107.795
 20
170.518
 11
-108.26
 21
170.355
  0
LINE
  8
0
 10
-108.26
 20
170.355
 11
-108.75
 21
170.3
  0
LINE
  8
0
 10
-108.75
 20
170.3
 11
-109.24
 21
170.355
  0
LINE
  8
0
 10
-38.6272
 20
156.716
 11
-39.085
 21
156.896
  0
LINE
  8
0
 10
-39.085
 20
156.896
 11
-39.4695
 21
157.202
  0
LINE
  8
0
 10
-39.4695
 20
157.202
 11
-39.7466
 21
157.609
  0
LINE
  8
0
 10
-39.7466
 20
157.609
 11
-39.8916
 21
158.079
  0
LINE
  8
0
 10
-39.8916
 20
158.079
 11
-39.8916
 21
158.57
  0
LINE
  8
0
 10
-39.8916
 20
158.57
 11
-39.7466
 21
159.04
  0
LINE
  8
0
 10
-39.7466
 20
159.04
 11
-39.4695
 21
159.447
  0
LINE
  8
0
 10
-39.4695
 20
159.447
 11
-39.085
 21
159.754
  0
LINE
  8
0
 10
-39.085
 20
159.754
 11
-38.6272
 21
159.933
  0
LINE
  8
0
 10
-38.6272
 20
159.933
 11
-38.1367
 21
159.97
  0
LINE
  8
0
 10
-38.1367
 20
159.97
 11
-37.6572
 21
159.861
  0
LINE
  8
0
 10
-37.6572
 20
159.861
 11
-37.2312
 21
159.615
  0
LINE
  8
0
 10
-37.2312
 20
159.615
 11
-36.8967
 21
159.254
  0
LINE
  8
0
 10
-36.8967
 20
159.254
 11
-36.6833
 21
158.811
  0
LINE
  8
0
 10
-36.6833
 20
158.811
 11
-36.61
 21
158.325
  0
LINE
  8
0
 10
-36.61
 20
158.325
 11
-36.6833
 21
157.838
  0
LINE
  8
0
 10
-36.6833
 20
157.838
 11
-36.8967
 21
157.395
  0
LINE
  8
0
 10
-36.8967
 20
157.395
 11
-37.2312
 21
157.035
  0
LINE
  8
0
 10
-37.2312
 20
157.035
 11
-37.6572
 21
156.789
  0
LINE
  8
0
 10
-37.6572
 20
156.789
 11
-38.1367
 21
156.679
  0
LINE
  8
0
 10
-38.1367
 20
156.679
 11
-38.6272
 21
156.716
  0
LINE
  8
0
 10
-38.6272
 20
142.067
 11
-39.085
 21
142.246
  0
LINE
  8
0
 10
-39.085
 20
142.246
 11
-39.4695
 21
142.553
  0
LINE
  8
0
 10
-39.4695
 20
142.553
 11
-39.7466
 21
142.96
  0
LINE
  8
0
 10
-39.7466
 20
142.96
 11
-39.8916
 21
143.429
  0
LINE
  8
0
 10
-39.8916
 20
143.429
 11
-39.8916
 21
143.921
  0
LINE
  8
0
 10
-39.8916
 20
143.921
 11
-39.7466
 21
144.391
  0
LINE
  8
0
 10
-39.7466
 20
144.391
 11
-39.4695
 21
144.798
  0
LINE
  8
0
 10
-39.4695
 20
144.798
 11
-39.085
 21
145.104
  0
LINE
  8
0
 10
-39.085
 20
145.104
 11
-38.6272
 21
145.284
  0
LINE
  8
0
 10
-38.6272
 20
145.284
 11
-38.1367
 21
145.321
  0
LINE
  8
0
 10
-38.1367
 20
145.321
 11
-37.6572
 21
145.211
  0
LINE
  8
0
 10
-37.6572
 20
145.211
 11
-37.2312
 21
144.965
  0
LINE
  8
0
 10
-37.2312
 20
144.965
 11
-36.8967
 21
144.605
  0
LINE
  8
0
 10
-36.8967
 20
144.605
 11
-36.6833
 21
144.162
  0
LINE
  8
0
 10
-36.6833
 20
144.162
 11
-36.61
 21
143.675
  0
LINE
  8
0
 10
-36.61
 20
143.675
 11
-36.6833
 21
143.189
  0
LINE
  8
0
 10
-36.6833
 20
143.189
 11
-36.8967
 21
142.746
  0
LINE
  8
0
 10
-36.8967
 20
142.746
 11
-37.2312
 21
142.385
  0
LINE
  8
0
 10
-37.2312
 20
142.385
 11
-37.6572
 21
142.139
  0
LINE
  8
0
 10
-37.6572
 20
142.139
 11
-38.1367
 21
142.03
  0
LINE
  8
0
 10
-38.1367
 20
142.03
 11
-38.6272
 21
142.067
  0
LINE
  8
0
 10
94.7605
 20
118.355
 11
94.2954
 21
118.518
  0
LINE
  8
0
 10
94.2954
 20
118.518
 11
93.8783
 21
118.78
  0
LINE
  8
0
 10
93.8783
 20
118.78
 11
93.53
 21
119.128
  0
LINE
  8
0
 10
93.53
 20
119.128
 11
93.2679
 21
119.545
  0
LINE
  8
0
 10
93.2679
 20
119.545
 11
93.1051
 21
120.01
  0
LINE
  8
0
 10
93.1051
 20
120.01
 11
93.05
 21
120.5
  0
LINE
  8
0
 10
93.05
 20
120.5
 11
93.1051
 21
120.99
  0
LINE
  8
0
 10
93.1051
 20
120.99
 11
93.2679
 21
121.455
  0
LINE
  8
0
 10
93.2679
 20
121.455
 11
93.53
 21
121.872
  0
LINE
  8
0
 10
93.53
 20
121.872
 11
93.8783
 21
122.22
  0
LINE
  8
0
 10
93.8783
 20
122.22
 11
94.2954
 21
122.482
  0
LINE
  8
0
 10
94.2954
 20
122.482
 11
94.7605
 21
122.645
  0
LINE
  8
0
 10
94.7605
 20
122.645
 11
95.25
 21
122.7
  0
LINE
  8
0
 10
95.25
 20
122.7
 11
95.7395
 21
122.645
  0
LINE
  8
0
 10
95.7395
 20
122.645
 11
96.2045
 21
122.482
  0
LINE
  8
0
 10
96.2045
 20
122.482
 11
96.6217
 21
122.22
  0
LINE
  8
0
 10
96.6217
 20
122.22
 11
96.97
 21
121.872
  0
LINE
  8
0
 10
96.97
 20
121.872
 11
97.2321
 21
121.455
  0
LINE
  8
0
 10
97.2321
 20
121.455
 11
97.3948
 21
120.99
  0
LINE
  8
0
 10
97.3948
 20
120.99
 11
97.45
 21
120.5
  0
LINE
  8
0
 10
97.45
 20
120.5
 11
97.3948
 21
120.01
  0
LINE
  8
0
 10
97.3948
 20
120.01
 11
97.2321
 21
119.545
  0
LINE
  8
0
 10
97.2321
 20
119.545
 11
96.97
 21
119.128
  0
LINE
  8
0
 10
96.97
 20
119.128
 11
96.6217
 21
118.78
  0
LINE
  8
0
 10
96.6217
 20
118.78
 11
96.2045
 21
118.518
  0
LINE
  8
0
 10
96.2045
 20
118.518
 11
95.7395
 21
118.355
  0
LINE
  8
0
 10
95.7395
 20
118.355
 11
95.25
 21
118.3
  0
LINE
  8
0
 10
95.25
 20
118.3
 11
94.7605
 21
118.355
  0
LINE
  8
0
 10
57.7605
 20
94.3551
 11
57.2955
 21
94.5179
  0
LINE
  8
0
 10
57.2955
 20
94.5179
 11
56.8783
 21
94.78
  0
LINE
  8
0
 10
56.8783
 20
94.78
 11
56.53
 21
95.1283
  0
LINE
  8
0
 10
56.53
 20
95.1283
 11
56.2679
 21
95.5455
  0
LINE
  8
0
 10
56.2679
 20
95.5455
 11
56.1051
 21
96.0105
  0
LINE
  8
0
 10
56.1051
 20
96.0105
 11
56.05
 21
96.5
  0
LINE
  8
0
 10
56.05
 20
96.5
 11
56.1051
 21
96.9895
  0
LINE
  8
0
 10
56.1051
 20
96.9895
 11
56.2679
 21
97.4545
  0
LINE
  8
0
 10
56.2679
 20
97.4545
 11
56.53
 21
97.8717
  0
LINE
  8
0
 10
56.53
 20
97.8717
 11
56.8783
 21
98.22
  0
LINE
  8
0
 10
56.8783
 20
98.22
 11
57.2955
 21
98.4821
  0
LINE
  8
0
 10
57.2955
 20
98.4821
 11
57.7605
 21
98.6448
  0
LINE
  8
0
 10
57.7605
 20
98.6448
 11
58.25
 21
98.7
  0
LINE
  8
0
 10
58.25
 20
98.7
 11
58.7395
 21
98.6448
  0
LINE
  8
0
 10
58.7395
 20
98.6448
 11
59.2045
 21
98.4821
  0
LINE
  8
0
 10
59.2045
 20
98.4821
 11
59.6217
 21
98.22
  0
LINE
  8
0
 10
59.6217
 20
98.22
 11
59.97
 21
97.8717
  0
LINE
  8
0
 10
59.97
 20
97.8717
 11
60.2321
 21
97.4545
  0
LINE
  8
0
 10
60.2321
 20
97.4545
 11
60.3948
 21
96.9895
  0
LINE
  8
0
 10
60.3948
 20
96.9895
 11
60.45
 21
96.5
  0
LINE
  8
0
 10
60.45
 20
96.5
 11
60.3948
 21
96.0105
  0
LINE
  8
0
 10
60.3948
 20
96.0105
 11
60.2321
 21
95.5455
  0
LINE
  8
0
 10
60.2321
 20
95.5455
 11
59.97
 21
95.1283
  0
LINE
  8
0
 10
59.97
 20
95.1283
 11
59.6217
 21
94.78
  0
LINE
  8
0
 10
59.6217
 20
94.78
 11
59.2045
 21
94.5179
  0
LINE
  8
0
 10
59.2045
 20
94.5179
 11
58.7395
 21
94.3551
  0
LINE
  8
0
 10
58.7395
 20
94.3551
 11
58.25
 21
94.3
  0
LINE
  8
0
 10
58.25
 20
94.3
 11
57.7605
 21
94.3551
  0
LINE
  8
0
 10
-38.8628
 20
67.9386
 11
-39.2888
 21
68.1846
  0
LINE
  8
0
 10
-39.2888
 20
68.1846
 11
-39.6233
 21
68.5451
  0
LINE
  8
0
 10
-39.6233
 20
68.5451
 11
-39.8367
 21
68.9882
  0
LINE
  8
0
 10
-39.8367
 20
68.9882
 11
-39.91
 21
69.4746
  0
LINE
  8
0
 10
-39.91
 20
69.4746
 11
-39.8367
 21
69.9609
  0
LINE
  8
0
 10
-39.8367
 20
69.9609
 11
-39.6233
 21
70.4041
  0
LINE
  8
0
 10
-39.6233
 20
70.4041
 11
-39.2888
 21
70.7646
  0
LINE
  8
0
 10
-39.2888
 20
70.7646
 11
-38.8628
 21
71.0105
  0
LINE
  8
0
 10
-38.8628
 20
71.0105
 11
-38.3833
 21
71.12
  0
LINE
  8
0
 10
-38.3833
 20
71.12
 11
-37.8928
 21
71.0832
  0
LINE
  8
0
 10
-37.8928
 20
71.0832
 11
-37.435
 21
70.9035
  0
LINE
  8
0
 10
-37.435
 20
70.9035
 11
-37.0505
 21
70.5969
  0
LINE
  8
0
 10
-37.0505
 20
70.5969
 11
-36.7734
 21
70.1905
  0
LINE
  8
0
 10
-36.7734
 20
70.1905
 11
-36.6284
 21
69.7205
  0
LINE
  8
0
 10
-36.6284
 20
69.7205
 11
-36.6284
 21
69.2287
  0
LINE
  8
0
 10
-36.6284
 20
69.2287
 11
-36.7734
 21
68.7587
  0
LINE
  8
0
 10
-36.7734
 20
68.7587
 11
-37.0505
 21
68.3523
  0
LINE
  8
0
 10
-37.0505
 20
68.3523
 11
-37.435
 21
68.0456
  0
LINE
  8
0
 10
-37.435
 20
68.0456
 11
-37.8928
 21
67.8659
  0
LINE
  8
0
 10
-37.8928
 20
67.8659
 11
-38.3833
 21
67.8292
  0
LINE
  8
0
 10
-38.3833
 20
67.8292
 11
-38.8628
 21
67.9386
  0
LINE
  8
0
 10
-38.8628
 20
53.2895
 11
-39.2888
 21
53.5354
  0
LINE
  8
0
 10
-39.2888
 20
53.5354
 11
-39.6233
 21
53.8959
  0
LINE
  8
0
 10
-39.6233
 20
53.8959
 11
-39.8367
 21
54.3391
  0
LINE
  8
0
 10
-39.8367
 20
54.3391
 11
-39.91
 21
54.8254
  0
LINE
  8
0
 10
-39.91
 20
54.8254
 11
-39.8367
 21
55.3118
  0
LINE
  8
0
 10
-39.8367
 20
55.3118
 11
-39.6233
 21
55.7549
  0
LINE
  8
0
 10
-39.6233
 20
55.7549
 11
-39.2888
 21
56.1154
  0
LINE
  8
0
 10
-39.2888
 20
56.1154
 11
-38.8628
 21
56.3614
  0
LINE
  8
0
 10
-38.8628
 20
56.3614
 11
-38.3833
 21
56.4708
  0
LINE
  8
0
 10
-38.3833
 20
56.4708
 11
-37.8928
 21
56.434
  0
LINE
  8
0
 10
-37.8928
 20
56.434
 11
-37.435
 21
56.2543
  0
LINE
  8
0
 10
-37.435
 20
56.2543
 11
-37.0505
 21
55.9477
  0
LINE
  8
0
 10
-37.0505
 20
55.9477
 11
-36.7734
 21
55.5413
  0
LINE
  8
0
 10
-36.7734
 20
55.5413
 11
-36.6284
 21
55.0713
  0
LINE
  8
0
 10
-36.6284
 20
55.0713
 11
-36.6284
 21
54.5795
  0
LINE
  8
0
 10
-36.6284
 20
54.5795
 11
-36.7734
 21
54.1095
  0
LINE
  8
0
 10
-36.7734
 20
54.1095
 11
-37.0505
 21
53.7031
  0
LINE
  8
0
 10
-37.0505
 20
53.7031
 11
-37.435
 21
53.3965
  0
LINE
  8
0
 10
-37.435
 20
53.3965
 11
-37.8928
 21
53.2168
  0
LINE
  8
0
 10
-37.8928
 20
53.2168
 11
-38.3833
 21
53.18
  0
LINE
  8
0
 10
-38.3833
 20
53.18
 11
-38.8628
 21
53.2895
  0
LINE
  8
0
 10
-72.2395
 20
42.3551
 11
-72.7045
 21
42.5179
  0
LINE
  8
0
 10
-72.7045
 20
42.5179
 11
-73.1217
 21
42.78
  0
LINE
  8
0
 10
-73.1217
 20
42.78
 11
-73.47
 21
43.1283
  0
LINE
  8
0
 10
-73.47
 20
43.1283
 11
-73.7321
 21
43.5454
  0
LINE
  8
0
 10
-73.7321
 20
43.5454
 11
-73.8948
 21
44.0105
  0
LINE
  8
0
 10
-73.8948
 20
44.0105
 11
-73.95
 21
44.5
  0
LINE
  8
0
 10
-73.95
 20
44.5
 11
-73.8948
 21
44.9895
  0
LINE
  8
0
 10
-73.8948
 20
44.9895
 11
-73.7321
 21
45.4545
  0
LINE
  8
0
 10
-73.7321
 20
45.4545
 11
-73.47
 21
45.8717
  0
LINE
  8
0
 10
-73.47
 20
45.8717
 11
-73.1217
 21
46.22
  0
LINE
  8
0
 10
-73.1217
 20
46.22
 11
-72.7045
 21
46.4821
  0
LINE
  8
0
 10
-72.7045
 20
46.4821
 11
-72.2395
 21
46.6448
  0
LINE
  8
0
 10
-72.2395
 20
46.6448
 11
-71.75
 21
46.7
  0
LINE
  8
0
 10
-71.75
 20
46.7
 11
-71.2605
 21
46.6448
  0
LINE
  8
0
 10
-71.2605
 20
46.6448
 11
-70.7955
 21
46.4821
  0
LINE
  8
0
 10
-70.7955
 20
46.4821
 11
-70.3783
 21
46.22
  0
LINE
  8
0
 10
-70.3783
 20
46.22
 11
-70.03
 21
45.8717
  0
LINE
  8
0
 10
-70.03
 20
45.8717
 11
-69.7679
 21
45.4545
  0
LINE
  8
0
 10
-69.7679
 20
45.4545
 11
-69.6051
 21
44.9895
  0
LINE
  8
0
 10
-69.6051
 20
44.9895
 11
-69.55
 21
44.5
  0
LINE
  8
0
 10
-69.55
 20
44.5
 11
-69.6051
 21
44.0105
  0
LINE
  8
0
 10
-69.6051
 20
44.0105
 11
-69.7679
 21
43.5454
  0
LINE
  8
0
 10
-69.7679
 20
43.5454
 11
-70.03
 21
43.1283
  0
LINE
  8
0
 10
-70.03
 20
43.1283
 11
-70.3783
 21
42.78
  0
LINE
  8
0
 10
-70.3783
 20
42.78
 11
-70.7955
 21
42.5179
  0
LINE
  8
0
 10
-70.7955
 20
42.5179
 11
-71.2605
 21
42.3551
  0
LINE
  8
0
 10
-71.2605
 20
42.3551
 11
-71.75
 21
42.3
  0
LINE
  8
0
 10
-71.75
 20
42.3
 11
-72.2395
 21
42.3551
  0
LINE
  8
0
 10
-109.24
 20
18.3551
 11
-109.705
 21
18.5179
  0
LINE
  8
0
 10
-109.705
 20
18.5179
 11
-110.122
 21
18.78
  0
LINE
  8
0
 10
-110.122
 20
18.78
 11
-110.47
 21
19.1283
  0
LINE
  8
0
 10
-110.47
 20
19.1283
 11
-110.732
 21
19.5455
  0
LINE
  8
0
 10
-110.732
 20
19.5455
 11
-110.895
 21
20.0105
  0
LINE
  8
0
 10
-110.895
 20
20.0105
 11
-110.95
 21
20.5
  0
LINE
  8
0
 10
-110.95
 20
20.5
 11
-110.895
 21
20.9895
  0
LINE
  8
0
 10
-110.895
 20
20.9895
 11
-110.732
 21
21.4545
  0
LINE
  8
0
 10
-110.732
 20
21.4545
 11
-110.47
 21
21.8717
  0
LINE
  8
0
 10
-110.47
 20
21.8717
 11
-110.122
 21
22.22
  0
LINE
  8
0
 10
-110.122
 20
22.22
 11
-109.705
 21
22.4821
  0
LINE
  8
0
 10
-109.705
 20
22.4821
 11
-109.24
 21
22.6448
  0
LINE
  8
0
 10
-109.24
 20
22.6448
 11
-108.75
 21
22.7
  0
LINE
  8
0
 10
-108.75
 20
22.7
 11
-108.26
 21
22.6448
  0
LINE
  8
0
 10
-108.26
 20
22.6448
 11
-107.795
 21
22.4821
  0
LINE
  8
0
 10
-107.795
 20
22.4821
 11
-107.378
 21
22.22
  0
LINE
  8
0
 10
-107.378
 20
22.22
 11
-107.03
 21
21.8717
  0
LINE
  8
0
 10
-107.03
 20
21.8717
 11
-106.768
 21
21.4545
  0
LINE
  8
0
 10
-106.768
 20
21.4545
 11
-106.605
 21
20.9895
  0
LINE
  8
0
 10
-106.605
 20
20.9895
 11
-106.55
 21
20.5
  0
LINE
  8
0
 10
-106.55
 20
20.5
 11
-106.605
 21
20.0105
  0
LINE
  8
0
 10
-106.605
 20
20.0105
 11
-106.768
 21
19.5455
  0
LINE
  8
0
 10
-106.768
 20
19.5455
 11
-107.03
 21
19.1283
  0
LINE
  8
0
 10
-107.03
 20
19.1283
 11
-107.378
 21
18.78
  0
LINE
  8
0
 10
-107.378
 20
18.78
 11
-107.795
 21
18.5179
  0
LINE
  8
0
 10
-107.795
 20
18.5179
 11
-108.26
 21
18.3551
  0
LINE
  8
0
 10
-108.26
 20
18.3551
 11
-108.75
 21
18.3
  0
LINE
  8
0
 10
-108.75
 20
18.3
 11
-109.24
 21
18.3551
  0
LINE
  8
0
 10
-111.728
 20
2.84514
 11
-112.134
 21
3.1161
  0
LINE
  8
0
 10
-112.134
 20
3.1161
 11
-112.405
 21
3.52164
  0
LINE
  8
0
 10
-112.405
 20
3.52164
 11
-112.5
 21
4
  0
LINE
  8
0
 10
-112.5
 20
4
 11
-112.405
 21
4.47835
  0
LINE
  8
0
 10
-112.405
 20
4.47835
 11
-112.134
 21
4.88388
  0
LINE
  8
0
 10
-112.134
 20
4.88388
 11
-111.728
 21
5.15485
  0
LINE
  8
0
 10
-111.728
 20
5.15485
 11
-111.25
 21
5.25
  0
LINE
  8
0
 10
-111.25
 20
5.25
 11
-110.772
 21
5.15485
  0
LINE
  8
0
 10
-110.772
 20
5.15485
 11
-110.366
 21
4.88388
  0
LINE
  8
0
 10
-110.366
 20
4.88388
 11
-110.095
 21
4.47835
  0
LINE
  8
0
 10
-110.095
 20
4.47835
 11
-110
 21
4
  0
LINE
  8
0
 10
-110
 20
4
 11
-110.095
 21
3.52164
  0
LINE
  8
0
 10
-110.095
 20
3.52164
 11
-110.366
 21
3.1161
  0
LINE
  8
0
 10
-110.366
 20
3.1161
 11
-110.772
 21
2.84514
  0
LINE
  8
0
 10
-110.772
 20
2.84514
 11
-111.25
 21
2.75
  0
LINE
  8
0
 10
-111.25
 20
2.75
 11
-111.728
 21
2.84514
  0
LINE
  8
0
 10
97.2716
 20
2.84514
 11
96.8661
 21
3.1161
  0
LINE
  8
0
 10
96.8661
 20
3.1161
 11
96.5951
 21
3.52164
  0
LINE
  8
0
 10
96.5951
 20
3.52164
 11
96.5
 21
4
  0
LINE
  8
0
 10
96.5
 20
4
 11
96.5951
 21
4.47835
  0
LINE
  8
0
 10
96.5951
 20
4.47835
 11
96.8661
 21
4.88388
  0
LINE
  8
0
 10
96.8661
 20
4.88388
 11
97.2716
 21
5.15485
  0
LINE
  8
0
 10
97.2716
 20
5.15485
 11
97.75
 21
5.25
  0
LINE
  8
0
 10
97.75
 20
5.25
 11
98.2283
 21
5.15485
  0
LINE
  8
0
 10
98.2283
 20
5.15485
 11
98.6339
 21
4.88388
  0
LINE
  8
0
 10
98.6339
 20
4.88388
 11
98.9048
 21
4.47835
  0
LINE
  8
0
 10
98.9048
 20
4.47835
 11
99
 21
4
  0
LINE
  8
0
 10
99
 20
4
 11
98.9048
 21
3.52164
  0
LINE
  8
0
 10
98.9048
 20
3.52164
 11
98.6339
 21
3.1161
  0
LINE
  8
0
 10
98.6339
 20
3.1161
 11
98.2283
 21
2.84514
  0
LINE
  8
0
 10
98.2283
 20
2.84514
 11
97.75
 21
2.75
  0
LINE
  8
0
 10
97.75
 20
2.75
 11
97.2716
 21
2.84514
  0
ENDSEC
  0
SECTION
  2
OBJECTS
  0
DICTIONARY
  0
ENDSEC
  0
EOF
