  0
SECTION
  2
BLOCKS
  0
ENDSEC
  0
SECTION
  2
ENTITIES
  0
LINE
  8
0
 10
0
 11
0
 20
-166
 21
-106
  0
LINE
  8
0
 10
0
 11
3.5
 20
-106
 21
-106
  0
LINE
  8
0
 10
3.5
 11
3.998
 20
-106
 21
-105.964
  0
LINE
  8
0
 10
3.998
 11
4.486
 20
-105.964
 21
-105.858
  0
LINE
  8
0
 10
4.486
 11
4.954
 20
-105.858
 21
-105.684
  0
LINE
  8
0
 10
4.954
 11
5.392
 20
-105.684
 21
-105.444
  0
LINE
  8
0
 10
5.392
 11
5.792
 20
-105.444
 21
-105.145
  0
LINE
  8
0
 10
5.792
 11
6.145
 20
-105.145
 21
-104.792
  0
LINE
  8
0
 10
6.145
 11
6.444
 20
-104.792
 21
-104.392
  0
LINE
  8
0
 10
6.444
 11
6.684
 20
-104.392
 21
-103.954
  0
LINE
  8
0
 10
6.684
 11
6.858
 20
-103.954
 21
-103.486
  0
LINE
  8
0
 10
6.858
 11
6.964
 20
-103.486
 21
-102.998
  0
LINE
  8
0
 10
6.964
 11
7
 20
-102.998
 21
-102.5
  0
LINE
  8
0
 10
7
 11
6.964
 20
-102.5
 21
-102.002
  0
LINE
  8
0
 10
6.964
 11
6.858
 20
-102.002
 21
-101.514
  0
LINE
  8
0
 10
6.858
 11
6.684
 20
-101.514
 21
-101.046
  0
LINE
  8
0
 10
6.684
 11
6.444
 20
-101.046
 21
-100.608
  0
LINE
  8
0
 10
6.444
 11
6.145
 20
-100.608
 21
-100.208
  0
LINE
  8
0
 10
6.145
 11
5.792
 20
-100.208
 21
-99.855
  0
LINE
  8
0
 10
5.792
 11
5.392
 20
-99.855
 21
-99.556
  0
LINE
  8
0
 10
5.392
 11
4.954
 20
-99.556
 21
-99.316
  0
LINE
  8
0
 10
4.954
 11
4.486
 20
-99.316
 21
-99.142
  0
LINE
  8
0
 10
4.486
 11
3.998
 20
-99.142
 21
-99.036
  0
LINE
  8
0
 10
3.998
 11
3.5
 20
-99.036
 21
-99
  0
LINE
  8
0
 10
3.5
 11
0
 20
-99
 21
-99
  0
LINE
  8
0
 10
0
 11
0
 20
-99
 21
-91.885
  0
LINE
  8
0
 10
0
 11
2.241
 20
-91.885
 21
-91.885
  0
LINE
  8
0
 10
2.241
 11
2.709
 20
-91.885
 21
-91.77
  0
LINE
  8
0
 10
2.709
 11
3.136
 20
-91.77
 21
-91.546
  0
LINE
  8
0
 10
3.136
 11
3.497
 20
-91.546
 21
-91.226
  0
LINE
  8
0
 10
3.497
 11
3.771
 20
-91.226
 21
-90.829
  0
LINE
  8
0
 10
3.771
 11
3.942
 20
-90.829
 21
-90.379
  0
LINE
  8
0
 10
3.942
 11
4
 20
-90.379
 21
-89.9
  0
LINE
  8
0
 10
4
 11
3.942
 20
-89.9
 21
-89.421
  0
LINE
  8
0
 10
3.942
 11
3.771
 20
-89.421
 21
-88.971
  0
LINE
  8
0
 10
3.771
 11
3.497
 20
-88.971
 21
-88.574
  0
LINE
  8
0
 10
3.497
 11
3.136
 20
-88.574
 21
-88.254
  0
LINE
  8
0
 10
3.136
 11
2.709
 20
-88.254
 21
-88.03
  0
LINE
  8
0
 10
2.709
 11
2.241
 20
-88.03
 21
-87.915
  0
LINE
  8
0
 10
2.241
 11
0
 20
-87.915
 21
-87.915
  0
LINE
  8
0
 10
0
 11
0
 20
-87.915
 21
-28.385
  0
LINE
  8
0
 10
0
 11
2.241
 20
-28.385
 21
-28.385
  0
LINE
  8
0
 10
2.241
 11
2.709
 20
-28.385
 21
-28.27
  0
LINE
  8
0
 10
2.709
 11
3.136
 20
-28.27
 21
-28.046
  0
LINE
  8
0
 10
3.136
 11
3.497
 20
-28.046
 21
-27.726
  0
LINE
  8
0
 10
3.497
 11
3.771
 20
-27.726
 21
-27.329
  0
LINE
  8
0
 10
3.771
 11
3.942
 20
-27.329
 21
-26.879
  0
LINE
  8
0
 10
3.942
 11
4
 20
-26.879
 21
-26.4
  0
LINE
  8
0
 10
4
 11
3.942
 20
-26.4
 21
-25.921
  0
LINE
  8
0
 10
3.942
 11
3.771
 20
-25.921
 21
-25.471
  0
LINE
  8
0
 10
3.771
 11
3.497
 20
-25.471
 21
-25.074
  0
LINE
  8
0
 10
3.497
 11
3.136
 20
-25.074
 21
-24.754
  0
LINE
  8
0
 10
3.136
 11
2.709
 20
-24.754
 21
-24.53
  0
LINE
  8
0
 10
2.709
 11
2.241
 20
-24.53
 21
-24.415
  0
LINE
  8
0
 10
2.241
 11
0
 20
-24.415
 21
-24.415
  0
LINE
  8
0
 10
0
 11
0
 20
-24.415
 21
-19.4
  0
LINE
  8
0
 10
0
 11
2.5
 20
-19.4
 21
-19.4
  0
LINE
  8
0
 10
2.5
 11
2.988
 20
-19.4
 21
-19.352
  0
LINE
  8
0
 10
2.988
 11
3.457
 20
-19.352
 21
-19.21
  0
LINE
  8
0
 10
3.457
 11
3.889
 20
-19.21
 21
-18.979
  0
LINE
  8
0
 10
3.889
 11
4.268
 20
-18.979
 21
-18.668
  0
LINE
  8
0
 10
4.268
 11
4.579
 20
-18.668
 21
-18.289
  0
LINE
  8
0
 10
4.579
 11
4.81
 20
-18.289
 21
-17.857
  0
LINE
  8
0
 10
4.81
 11
4.952
 20
-17.857
 21
-17.388
  0
LINE
  8
0
 10
4.952
 11
5
 20
-17.388
 21
-16.9
  0
LINE
  8
0
 10
5
 11
4.952
 20
-16.9
 21
-16.412
  0
LINE
  8
0
 10
4.952
 11
4.81
 20
-16.412
 21
-15.943
  0
LINE
  8
0
 10
4.81
 11
4.579
 20
-15.943
 21
-15.511
  0
LINE
  8
0
 10
4.579
 11
4.268
 20
-15.511
 21
-15.132
  0
LINE
  8
0
 10
4.268
 11
3.889
 20
-15.132
 21
-14.821
  0
LINE
  8
0
 10
3.889
 11
3.457
 20
-14.821
 21
-14.59
  0
LINE
  8
0
 10
3.457
 11
2.988
 20
-14.59
 21
-14.448
  0
LINE
  8
0
 10
2.988
 11
2.5
 20
-14.448
 21
-14.4
  0
LINE
  8
0
 10
2.5
 11
0
 20
-14.4
 21
-14.4
  0
LINE
  8
0
 10
0
 11
0
 20
-14.4
 21
0
  0
LINE
  8
0
 10
0
 11
312.69
 20
0
 21
0
  0
LINE
  8
0
 10
312.69
 11
312.69
 20
0
 21
-3.248
  0
LINE
  8
0
 10
312.69
 11
312.772
 20
-3.248
 21
-3.736
  0
LINE
  8
0
 10
312.772
 11
312.933
 20
-3.736
 21
-4.205
  0
LINE
  8
0
 10
312.933
 11
313.169
 20
-4.205
 21
-4.641
  0
LINE
  8
0
 10
313.169
 11
313.473
 20
-4.641
 21
-5.032
  0
LINE
  8
0
 10
313.473
 11
313.837
 20
-5.032
 21
-5.367
  0
LINE
  8
0
 10
313.837
 11
314.252
 20
-5.367
 21
-5.638
  0
LINE
  8
0
 10
314.252
 11
314.706
 20
-5.638
 21
-5.837
  0
LINE
  8
0
 10
314.706
 11
315.186
 20
-5.837
 21
-5.959
  0
LINE
  8
0
 10
315.186
 11
315.68
 20
-5.959
 21
-6
  0
LINE
  8
0
 10
315.68
 11
316.174
 20
-6
 21
-5.959
  0
LINE
  8
0
 10
316.174
 11
316.654
 20
-5.959
 21
-5.837
  0
LINE
  8
0
 10
316.654
 11
317.108
 20
-5.837
 21
-5.638
  0
LINE
  8
0
 10
317.108
 11
317.523
 20
-5.638
 21
-5.367
  0
LINE
  8
0
 10
317.523
 11
317.887
 20
-5.367
 21
-5.032
  0
LINE
  8
0
 10
317.887
 11
318.191
 20
-5.032
 21
-4.641
  0
LINE
  8
0
 10
318.191
 11
318.427
 20
-4.641
 21
-4.205
  0
LINE
  8
0
 10
318.427
 11
318.588
 20
-4.205
 21
-3.736
  0
LINE
  8
0
 10
318.588
 11
318.67
 20
-3.736
 21
-3.248
  0
LINE
  8
0
 10
318.67
 11
318.67
 20
-3.248
 21
0
  0
LINE
  8
0
 10
318.67
 11
325.595
 20
0
 21
0
  0
LINE
  8
0
 10
325.595
 11
325.595
 20
0
 21
-2.241
  0
LINE
  8
0
 10
325.595
 11
325.71
 20
-2.241
 21
-2.709
  0
LINE
  8
0
 10
325.71
 11
325.934
 20
-2.709
 21
-3.136
  0
LINE
  8
0
 10
325.934
 11
326.254
 20
-3.136
 21
-3.497
  0
LINE
  8
0
 10
326.254
 11
326.651
 20
-3.497
 21
-3.771
  0
LINE
  8
0
 10
326.651
 11
327.101
 20
-3.771
 21
-3.942
  0
LINE
  8
0
 10
327.101
 11
327.58
 20
-3.942
 21
-4
  0
LINE
  8
0
 10
327.58
 11
328.059
 20
-4
 21
-3.942
  0
LINE
  8
0
 10
328.059
 11
328.509
 20
-3.942
 21
-3.771
  0
LINE
  8
0
 10
328.509
 11
328.906
 20
-3.771
 21
-3.497
  0
LINE
  8
0
 10
328.906
 11
329.226
 20
-3.497
 21
-3.136
  0
LINE
  8
0
 10
329.226
 11
329.45
 20
-3.136
 21
-2.709
  0
LINE
  8
0
 10
329.45
 11
329.565
 20
-2.709
 21
-2.241
  0
LINE
  8
0
 10
329.565
 11
329.565
 20
-2.241
 21
0
  0
LINE
  8
0
 10
329.565
 11
384
 20
0
 21
0
  0
LINE
  8
0
 10
384
 11
384
 20
0
 21
-141
  0
LINE
  8
0
 10
384
 11
383.905
 20
-141
 21
-143.179
  0
LINE
  8
0
 10
383.905
 11
383.62
 20
-143.179
 21
-145.341
  0
LINE
  8
0
 10
383.62
 11
383.148
 20
-145.341
 21
-147.47
  0
LINE
  8
0
 10
383.148
 11
382.492
 20
-147.47
 21
-149.551
  0
LINE
  8
0
 10
382.492
 11
381.658
 20
-149.551
 21
-151.565
  0
LINE
  8
0
 10
381.658
 11
380.651
 20
-151.565
 21
-153.5
  0
LINE
  8
0
 10
380.651
 11
379.479
 20
-153.5
 21
-155.339
  0
LINE
  8
0
 10
379.479
 11
378.151
 20
-155.339
 21
-157.07
  0
LINE
  8
0
 10
378.151
 11
376.678
 20
-157.07
 21
-158.678
  0
LINE
  8
0
 10
376.678
 11
375.07
 20
-158.678
 21
-160.151
  0
LINE
  8
0
 10
375.07
 11
373.339
 20
-160.151
 21
-161.479
  0
LINE
  8
0
 10
373.339
 11
371.5
 20
-161.479
 21
-162.651
  0
LINE
  8
0
 10
371.5
 11
369.565
 20
-162.651
 21
-163.658
  0
LINE
  8
0
 10
369.565
 11
367.551
 20
-163.658
 21
-164.492
  0
LINE
  8
0
 10
367.551
 11
365.47
 20
-164.492
 21
-165.148
  0
LINE
  8
0
 10
365.47
 11
363.341
 20
-165.148
 21
-165.62
  0
LINE
  8
0
 10
363.341
 11
361.179
 20
-165.62
 21
-165.905
  0
LINE
  8
0
 10
361.179
 11
359
 20
-165.905
 21
-166
  0
LINE
  8
0
 10
359
 11
0
 20
-166
 21
-166
  0
LINE
  8
0
 10
5
 11
5.055
 20
-157.3
 21
-156.81
  0
LINE
  8
0
 10
5.055
 11
5.218
 20
-156.81
 21
-156.345
  0
LINE
  8
0
 10
5.218
 11
5.48
 20
-156.345
 21
-155.928
  0
LINE
  8
0
 10
5.48
 11
5.828
 20
-155.928
 21
-155.58
  0
LINE
  8
0
 10
5.828
 11
6.245
 20
-155.58
 21
-155.318
  0
LINE
  8
0
 10
6.245
 11
6.71
 20
-155.318
 21
-155.155
  0
LINE
  8
0
 10
6.71
 11
7.2
 20
-155.155
 21
-155.1
  0
LINE
  8
0
 10
7.2
 11
7.69
 20
-155.1
 21
-155.155
  0
LINE
  8
0
 10
7.69
 11
8.155
 20
-155.155
 21
-155.318
  0
LINE
  8
0
 10
8.155
 11
8.572
 20
-155.318
 21
-155.58
  0
LINE
  8
0
 10
8.572
 11
8.92
 20
-155.58
 21
-155.928
  0
LINE
  8
0
 10
8.92
 11
9.182
 20
-155.928
 21
-156.345
  0
LINE
  8
0
 10
9.182
 11
9.345
 20
-156.345
 21
-156.81
  0
LINE
  8
0
 10
9.345
 11
9.4
 20
-156.81
 21
-157.3
  0
LINE
  8
0
 10
9.4
 11
9.345
 20
-157.3
 21
-157.79
  0
LINE
  8
0
 10
9.345
 11
9.182
 20
-157.79
 21
-158.255
  0
LINE
  8
0
 10
9.182
 11
8.92
 20
-158.255
 21
-158.672
  0
LINE
  8
0
 10
8.92
 11
8.572
 20
-158.672
 21
-159.02
  0
LINE
  8
0
 10
8.572
 11
8.155
 20
-159.02
 21
-159.282
  0
LINE
  8
0
 10
8.155
 11
7.69
 20
-159.282
 21
-159.445
  0
LINE
  8
0
 10
7.69
 11
7.2
 20
-159.445
 21
-159.5
  0
LINE
  8
0
 10
7.2
 11
6.71
 20
-159.5
 21
-159.445
  0
LINE
  8
0
 10
6.71
 11
6.245
 20
-159.445
 21
-159.282
  0
LINE
  8
0
 10
6.245
 11
5.828
 20
-159.282
 21
-159.02
  0
LINE
  8
0
 10
5.828
 11
5.48
 20
-159.02
 21
-158.672
  0
LINE
  8
0
 10
5.48
 11
5.218
 20
-158.672
 21
-158.255
  0
LINE
  8
0
 10
5.218
 11
5.055
 20
-158.255
 21
-157.79
  0
LINE
  8
0
 10
5.055
 11
5
 20
-157.79
 21
-157.3
  0
LINE
  8
0
 10
5
 11
5.055
 20
-136.08
 21
-135.59
  0
LINE
  8
0
 10
5.055
 11
5.218
 20
-135.59
 21
-135.125
  0
LINE
  8
0
 10
5.218
 11
5.48
 20
-135.125
 21
-134.708
  0
LINE
  8
0
 10
5.48
 11
5.828
 20
-134.708
 21
-134.36
  0
LINE
  8
0
 10
5.828
 11
6.245
 20
-134.36
 21
-134.098
  0
LINE
  8
0
 10
6.245
 11
6.71
 20
-134.098
 21
-133.935
  0
LINE
  8
0
 10
6.71
 11
7.2
 20
-133.935
 21
-133.88
  0
LINE
  8
0
 10
7.2
 11
7.69
 20
-133.88
 21
-133.935
  0
LINE
  8
0
 10
7.69
 11
8.155
 20
-133.935
 21
-134.098
  0
LINE
  8
0
 10
8.155
 11
8.572
 20
-134.098
 21
-134.36
  0
LINE
  8
0
 10
8.572
 11
8.92
 20
-134.36
 21
-134.708
  0
LINE
  8
0
 10
8.92
 11
9.182
 20
-134.708
 21
-135.125
  0
LINE
  8
0
 10
9.182
 11
9.345
 20
-135.125
 21
-135.59
  0
LINE
  8
0
 10
9.345
 11
9.4
 20
-135.59
 21
-136.08
  0
LINE
  8
0
 10
9.4
 11
9.345
 20
-136.08
 21
-136.57
  0
LINE
  8
0
 10
9.345
 11
9.182
 20
-136.57
 21
-137.035
  0
LINE
  8
0
 10
9.182
 11
8.92
 20
-137.035
 21
-137.452
  0
LINE
  8
0
 10
8.92
 11
8.572
 20
-137.452
 21
-137.8
  0
LINE
  8
0
 10
8.572
 11
8.155
 20
-137.8
 21
-138.062
  0
LINE
  8
0
 10
8.155
 11
7.69
 20
-138.062
 21
-138.225
  0
LINE
  8
0
 10
7.69
 11
7.2
 20
-138.225
 21
-138.28
  0
LINE
  8
0
 10
7.2
 11
6.71
 20
-138.28
 21
-138.225
  0
LINE
  8
0
 10
6.71
 11
6.245
 20
-138.225
 21
-138.062
  0
LINE
  8
0
 10
6.245
 11
5.828
 20
-138.062
 21
-137.8
  0
LINE
  8
0
 10
5.828
 11
5.48
 20
-137.8
 21
-137.452
  0
LINE
  8
0
 10
5.48
 11
5.218
 20
-137.452
 21
-137.035
  0
LINE
  8
0
 10
5.218
 11
5.055
 20
-137.035
 21
-136.57
  0
LINE
  8
0
 10
5.055
 11
5
 20
-136.57
 21
-136.08
  0
LINE
  8
0
 10
20.9
 11
20.955
 20
-7.2
 21
-6.71
  0
LINE
  8
0
 10
20.955
 11
21.118
 20
-6.71
 21
-6.245
  0
LINE
  8
0
 10
21.118
 11
21.38
 20
-6.245
 21
-5.828
  0
LINE
  8
0
 10
21.38
 11
21.728
 20
-5.828
 21
-5.48
  0
LINE
  8
0
 10
21.728
 11
22.145
 20
-5.48
 21
-5.218
  0
LINE
  8
0
 10
22.145
 11
22.61
 20
-5.218
 21
-5.055
  0
LINE
  8
0
 10
22.61
 11
23.1
 20
-5.055
 21
-5
  0
LINE
  8
0
 10
23.1
 11
23.59
 20
-5
 21
-5.055
  0
LINE
  8
0
 10
23.59
 11
24.055
 20
-5.055
 21
-5.218
  0
LINE
  8
0
 10
24.055
 11
24.472
 20
-5.218
 21
-5.48
  0
LINE
  8
0
 10
24.472
 11
24.82
 20
-5.48
 21
-5.828
  0
LINE
  8
0
 10
24.82
 11
25.082
 20
-5.828
 21
-6.245
  0
LINE
  8
0
 10
25.082
 11
25.245
 20
-6.245
 21
-6.71
  0
LINE
  8
0
 10
25.245
 11
25.3
 20
-6.71
 21
-7.2
  0
LINE
  8
0
 10
25.3
 11
25.245
 20
-7.2
 21
-7.69
  0
LINE
  8
0
 10
25.245
 11
25.082
 20
-7.69
 21
-8.155
  0
LINE
  8
0
 10
25.082
 11
24.82
 20
-8.155
 21
-8.572
  0
LINE
  8
0
 10
24.82
 11
24.472
 20
-8.572
 21
-8.92
  0
LINE
  8
0
 10
24.472
 11
24.055
 20
-8.92
 21
-9.182
  0
LINE
  8
0
 10
24.055
 11
23.59
 20
-9.182
 21
-9.345
  0
LINE
  8
0
 10
23.59
 11
23.1
 20
-9.345
 21
-9.4
  0
LINE
  8
0
 10
23.1
 11
22.61
 20
-9.4
 21
-9.345
  0
LINE
  8
0
 10
22.61
 11
22.145
 20
-9.345
 21
-9.182
  0
LINE
  8
0
 10
22.145
 11
21.728
 20
-9.182
 21
-8.92
  0
LINE
  8
0
 10
21.728
 11
21.38
 20
-8.92
 21
-8.572
  0
LINE
  8
0
 10
21.38
 11
21.118
 20
-8.572
 21
-8.155
  0
LINE
  8
0
 10
21.118
 11
20.955
 20
-8.155
 21
-7.69
  0
LINE
  8
0
 10
20.955
 11
20.9
 20
-7.69
 21
-7.2
  0
LINE
  8
0
 10
29.55
 11
29.605
 20
-159.15
 21
-158.66
  0
LINE
  8
0
 10
29.605
 11
29.768
 20
-158.66
 21
-158.195
  0
LINE
  8
0
 10
29.768
 11
30.03
 20
-158.195
 21
-157.778
  0
LINE
  8
0
 10
30.03
 11
30.378
 20
-157.778
 21
-157.43
  0
LINE
  8
0
 10
30.378
 11
30.795
 20
-157.43
 21
-157.168
  0
LINE
  8
0
 10
30.795
 11
31.26
 20
-157.168
 21
-157.005
  0
LINE
  8
0
 10
31.26
 11
31.75
 20
-157.005
 21
-156.95
  0
LINE
  8
0
 10
31.75
 11
32.24
 20
-156.95
 21
-157.005
  0
LINE
  8
0
 10
32.24
 11
32.705
 20
-157.005
 21
-157.168
  0
LINE
  8
0
 10
32.705
 11
33.122
 20
-157.168
 21
-157.43
  0
LINE
  8
0
 10
33.122
 11
33.47
 20
-157.43
 21
-157.778
  0
LINE
  8
0
 10
33.47
 11
33.732
 20
-157.778
 21
-158.195
  0
LINE
  8
0
 10
33.732
 11
33.895
 20
-158.195
 21
-158.66
  0
LINE
  8
0
 10
33.895
 11
33.95
 20
-158.66
 21
-159.15
  0
LINE
  8
0
 10
33.95
 11
33.895
 20
-159.15
 21
-159.64
  0
LINE
  8
0
 10
33.895
 11
33.732
 20
-159.64
 21
-160.105
  0
LINE
  8
0
 10
33.732
 11
33.47
 20
-160.105
 21
-160.522
  0
LINE
  8
0
 10
33.47
 11
33.122
 20
-160.522
 21
-160.87
  0
LINE
  8
0
 10
33.122
 11
32.705
 20
-160.87
 21
-161.132
  0
LINE
  8
0
 10
32.705
 11
32.24
 20
-161.132
 21
-161.295
  0
LINE
  8
0
 10
32.24
 11
31.75
 20
-161.295
 21
-161.35
  0
LINE
  8
0
 10
31.75
 11
31.26
 20
-161.35
 21
-161.295
  0
LINE
  8
0
 10
31.26
 11
30.795
 20
-161.295
 21
-161.132
  0
LINE
  8
0
 10
30.795
 11
30.378
 20
-161.132
 21
-160.87
  0
LINE
  8
0
 10
30.378
 11
30.03
 20
-160.87
 21
-160.522
  0
LINE
  8
0
 10
30.03
 11
29.768
 20
-160.522
 21
-160.105
  0
LINE
  8
0
 10
29.768
 11
29.605
 20
-160.105
 21
-159.64
  0
LINE
  8
0
 10
29.605
 11
29.55
 20
-159.64
 21
-159.15
  0
LINE
  8
0
 10
42.12
 11
42.175
 20
-7.2
 21
-6.71
  0
LINE
  8
0
 10
42.175
 11
42.338
 20
-6.71
 21
-6.245
  0
LINE
  8
0
 10
42.338
 11
42.6
 20
-6.245
 21
-5.828
  0
LINE
  8
0
 10
42.6
 11
42.948
 20
-5.828
 21
-5.48
  0
LINE
  8
0
 10
42.948
 11
43.365
 20
-5.48
 21
-5.218
  0
LINE
  8
0
 10
43.365
 11
43.83
 20
-5.218
 21
-5.055
  0
LINE
  8
0
 10
43.83
 11
44.32
 20
-5.055
 21
-5
  0
LINE
  8
0
 10
44.32
 11
44.81
 20
-5
 21
-5.055
  0
LINE
  8
0
 10
44.81
 11
45.275
 20
-5.055
 21
-5.218
  0
LINE
  8
0
 10
45.275
 11
45.692
 20
-5.218
 21
-5.48
  0
LINE
  8
0
 10
45.692
 11
46.04
 20
-5.48
 21
-5.828
  0
LINE
  8
0
 10
46.04
 11
46.302
 20
-5.828
 21
-6.245
  0
LINE
  8
0
 10
46.302
 11
46.465
 20
-6.245
 21
-6.71
  0
LINE
  8
0
 10
46.465
 11
46.52
 20
-6.71
 21
-7.2
  0
LINE
  8
0
 10
46.52
 11
46.465
 20
-7.2
 21
-7.69
  0
LINE
  8
0
 10
46.465
 11
46.302
 20
-7.69
 21
-8.155
  0
LINE
  8
0
 10
46.302
 11
46.04
 20
-8.155
 21
-8.572
  0
LINE
  8
0
 10
46.04
 11
45.692
 20
-8.572
 21
-8.92
  0
LINE
  8
0
 10
45.692
 11
45.275
 20
-8.92
 21
-9.182
  0
LINE
  8
0
 10
45.275
 11
44.81
 20
-9.182
 21
-9.345
  0
LINE
  8
0
 10
44.81
 11
44.32
 20
-9.345
 21
-9.4
  0
LINE
  8
0
 10
44.32
 11
43.83
 20
-9.4
 21
-9.345
  0
LINE
  8
0
 10
43.83
 11
43.365
 20
-9.345
 21
-9.182
  0
LINE
  8
0
 10
43.365
 11
42.948
 20
-9.182
 21
-8.92
  0
LINE
  8
0
 10
42.948
 11
42.6
 20
-8.92
 21
-8.572
  0
LINE
  8
0
 10
42.6
 11
42.338
 20
-8.572
 21
-8.155
  0
LINE
  8
0
 10
42.338
 11
42.175
 20
-8.155
 21
-7.69
  0
LINE
  8
0
 10
42.175
 11
42.12
 20
-7.69
 21
-7.2
  0
LINE
  8
0
 10
120.85
 11
120.905
 20
-159.15
 21
-158.66
  0
LINE
  8
0
 10
120.905
 11
121.068
 20
-158.66
 21
-158.195
  0
LINE
  8
0
 10
121.068
 11
121.33
 20
-158.195
 21
-157.778
  0
LINE
  8
0
 10
121.33
 11
121.678
 20
-157.778
 21
-157.43
  0
LINE
  8
0
 10
121.678
 11
122.095
 20
-157.43
 21
-157.168
  0
LINE
  8
0
 10
122.095
 11
122.56
 20
-157.168
 21
-157.005
  0
LINE
  8
0
 10
122.56
 11
123.05
 20
-157.005
 21
-156.95
  0
LINE
  8
0
 10
123.05
 11
123.54
 20
-156.95
 21
-157.005
  0
LINE
  8
0
 10
123.54
 11
124.005
 20
-157.005
 21
-157.168
  0
LINE
  8
0
 10
124.005
 11
124.422
 20
-157.168
 21
-157.43
  0
LINE
  8
0
 10
124.422
 11
124.77
 20
-157.43
 21
-157.778
  0
LINE
  8
0
 10
124.77
 11
125.032
 20
-157.778
 21
-158.195
  0
LINE
  8
0
 10
125.032
 11
125.195
 20
-158.195
 21
-158.66
  0
LINE
  8
0
 10
125.195
 11
125.25
 20
-158.66
 21
-159.15
  0
LINE
  8
0
 10
125.25
 11
125.195
 20
-159.15
 21
-159.64
  0
LINE
  8
0
 10
125.195
 11
125.032
 20
-159.64
 21
-160.105
  0
LINE
  8
0
 10
125.032
 11
124.77
 20
-160.105
 21
-160.522
  0
LINE
  8
0
 10
124.77
 11
124.422
 20
-160.522
 21
-160.87
  0
LINE
  8
0
 10
124.422
 11
124.005
 20
-160.87
 21
-161.132
  0
LINE
  8
0
 10
124.005
 11
123.54
 20
-161.132
 21
-161.295
  0
LINE
  8
0
 10
123.54
 11
123.05
 20
-161.295
 21
-161.35
  0
LINE
  8
0
 10
123.05
 11
122.56
 20
-161.35
 21
-161.295
  0
LINE
  8
0
 10
122.56
 11
122.095
 20
-161.295
 21
-161.132
  0
LINE
  8
0
 10
122.095
 11
121.678
 20
-161.132
 21
-160.87
  0
LINE
  8
0
 10
121.678
 11
121.33
 20
-160.87
 21
-160.522
  0
LINE
  8
0
 10
121.33
 11
121.068
 20
-160.522
 21
-160.105
  0
LINE
  8
0
 10
121.068
 11
120.905
 20
-160.105
 21
-159.64
  0
LINE
  8
0
 10
120.905
 11
120.85
 20
-159.64
 21
-159.15
  0
LINE
  8
0
 10
172.225
 11
172.261
 20
-104.078
 21
-103.588
  0
LINE
  8
0
 10
172.261
 11
172.441
 20
-103.588
 21
-103.13
  0
LINE
  8
0
 10
172.441
 11
172.748
 20
-103.13
 21
-102.745
  0
LINE
  8
0
 10
172.748
 11
173.154
 20
-102.745
 21
-102.468
  0
LINE
  8
0
 10
173.154
 11
173.624
 20
-102.468
 21
-102.323
  0
LINE
  8
0
 10
173.624
 11
174.116
 20
-102.323
 21
-102.323
  0
LINE
  8
0
 10
174.116
 11
174.586
 20
-102.323
 21
-102.468
  0
LINE
  8
0
 10
174.586
 11
174.992
 20
-102.468
 21
-102.745
  0
LINE
  8
0
 10
174.992
 11
175.299
 20
-102.745
 21
-103.13
  0
LINE
  8
0
 10
175.299
 11
175.479
 20
-103.13
 21
-103.588
  0
LINE
  8
0
 10
175.479
 11
175.515
 20
-103.588
 21
-104.078
  0
LINE
  8
0
 10
175.515
 11
175.406
 20
-104.078
 21
-104.558
  0
LINE
  8
0
 10
175.406
 11
175.16
 20
-104.558
 21
-104.984
  0
LINE
  8
0
 10
175.16
 11
174.799
 20
-104.984
 21
-105.318
  0
LINE
  8
0
 10
174.799
 11
174.356
 20
-105.318
 21
-105.532
  0
LINE
  8
0
 10
174.356
 11
173.87
 20
-105.532
 21
-105.605
  0
LINE
  8
0
 10
173.87
 11
173.384
 20
-105.605
 21
-105.532
  0
LINE
  8
0
 10
173.384
 11
172.941
 20
-105.532
 21
-105.318
  0
LINE
  8
0
 10
172.941
 11
172.58
 20
-105.318
 21
-104.984
  0
LINE
  8
0
 10
172.58
 11
172.334
 20
-104.984
 21
-104.558
  0
LINE
  8
0
 10
172.334
 11
172.225
 20
-104.558
 21
-104.078
  0
LINE
  8
0
 10
172.225
 11
172.261
 20
-62.168
 21
-61.678
  0
LINE
  8
0
 10
172.261
 11
172.441
 20
-61.678
 21
-61.22
  0
LINE
  8
0
 10
172.441
 11
172.748
 20
-61.22
 21
-60.835
  0
LINE
  8
0
 10
172.748
 11
173.154
 20
-60.835
 21
-60.558
  0
LINE
  8
0
 10
173.154
 11
173.624
 20
-60.558
 21
-60.413
  0
LINE
  8
0
 10
173.624
 11
174.116
 20
-60.413
 21
-60.413
  0
LINE
  8
0
 10
174.116
 11
174.586
 20
-60.413
 21
-60.558
  0
LINE
  8
0
 10
174.586
 11
174.992
 20
-60.558
 21
-60.835
  0
LINE
  8
0
 10
174.992
 11
175.299
 20
-60.835
 21
-61.22
  0
LINE
  8
0
 10
175.299
 11
175.479
 20
-61.22
 21
-61.678
  0
LINE
  8
0
 10
175.479
 11
175.515
 20
-61.678
 21
-62.168
  0
LINE
  8
0
 10
175.515
 11
175.406
 20
-62.168
 21
-62.648
  0
LINE
  8
0
 10
175.406
 11
175.16
 20
-62.648
 21
-63.074
  0
LINE
  8
0
 10
175.16
 11
174.799
 20
-63.074
 21
-63.408
  0
LINE
  8
0
 10
174.799
 11
174.356
 20
-63.408
 21
-63.622
  0
LINE
  8
0
 10
174.356
 11
173.87
 20
-63.622
 21
-63.695
  0
LINE
  8
0
 10
173.87
 11
173.384
 20
-63.695
 21
-63.622
  0
LINE
  8
0
 10
173.384
 11
172.941
 20
-63.622
 21
-63.408
  0
LINE
  8
0
 10
172.941
 11
172.58
 20
-63.408
 21
-63.074
  0
LINE
  8
0
 10
172.58
 11
172.334
 20
-63.074
 21
-62.648
  0
LINE
  8
0
 10
172.334
 11
172.225
 20
-62.648
 21
-62.168
  0
LINE
  8
0
 10
188.65
 11
188.734
 20
-150.75
 21
-150.271
  0
LINE
  8
0
 10
188.734
 11
188.978
 20
-150.271
 21
-149.85
  0
LINE
  8
0
 10
188.978
 11
189.35
 20
-149.85
 21
-149.538
  0
LINE
  8
0
 10
189.35
 11
189.807
 20
-149.538
 21
-149.371
  0
LINE
  8
0
 10
189.807
 11
190.293
 20
-149.371
 21
-149.371
  0
LINE
  8
0
 10
190.293
 11
190.75
 20
-149.371
 21
-149.538
  0
LINE
  8
0
 10
190.75
 11
191.122
 20
-149.538
 21
-149.85
  0
LINE
  8
0
 10
191.122
 11
191.366
 20
-149.85
 21
-150.271
  0
LINE
  8
0
 10
191.366
 11
191.45
 20
-150.271
 21
-150.75
  0
LINE
  8
0
 10
191.45
 11
191.366
 20
-150.75
 21
-151.229
  0
LINE
  8
0
 10
191.366
 11
191.122
 20
-151.229
 21
-151.65
  0
LINE
  8
0
 10
191.122
 11
190.75
 20
-151.65
 21
-151.962
  0
LINE
  8
0
 10
190.75
 11
190.293
 20
-151.962
 21
-152.129
  0
LINE
  8
0
 10
190.293
 11
189.807
 20
-152.129
 21
-152.129
  0
LINE
  8
0
 10
189.807
 11
189.35
 20
-152.129
 21
-151.962
  0
LINE
  8
0
 10
189.35
 11
188.978
 20
-151.962
 21
-151.65
  0
LINE
  8
0
 10
188.978
 11
188.734
 20
-151.65
 21
-151.229
  0
LINE
  8
0
 10
188.734
 11
188.65
 20
-151.229
 21
-150.75
  0
LINE
  8
0
 10
202.95
 11
203.034
 20
-134.85
 21
-134.371
  0
LINE
  8
0
 10
203.034
 11
203.278
 20
-134.371
 21
-133.95
  0
LINE
  8
0
 10
203.278
 11
203.65
 20
-133.95
 21
-133.638
  0
LINE
  8
0
 10
203.65
 11
204.107
 20
-133.638
 21
-133.471
  0
LINE
  8
0
 10
204.107
 11
204.593
 20
-133.471
 21
-133.471
  0
LINE
  8
0
 10
204.593
 11
205.05
 20
-133.471
 21
-133.638
  0
LINE
  8
0
 10
205.05
 11
205.422
 20
-133.638
 21
-133.95
  0
LINE
  8
0
 10
205.422
 11
205.666
 20
-133.95
 21
-134.371
  0
LINE
  8
0
 10
205.666
 11
205.75
 20
-134.371
 21
-134.85
  0
LINE
  8
0
 10
205.75
 11
205.666
 20
-134.85
 21
-135.329
  0
LINE
  8
0
 10
205.666
 11
205.422
 20
-135.329
 21
-135.75
  0
LINE
  8
0
 10
205.422
 11
205.05
 20
-135.75
 21
-136.062
  0
LINE
  8
0
 10
205.05
 11
204.593
 20
-136.062
 21
-136.229
  0
LINE
  8
0
 10
204.593
 11
204.107
 20
-136.229
 21
-136.229
  0
LINE
  8
0
 10
204.107
 11
203.65
 20
-136.229
 21
-136.062
  0
LINE
  8
0
 10
203.65
 11
203.278
 20
-136.062
 21
-135.75
  0
LINE
  8
0
 10
203.278
 11
203.034
 20
-135.75
 21
-135.329
  0
LINE
  8
0
 10
203.034
 11
202.95
 20
-135.329
 21
-134.85
  0
LINE
  8
0
 10
239.25
 11
239.334
 20
-150.75
 21
-150.271
  0
LINE
  8
0
 10
239.334
 11
239.578
 20
-150.271
 21
-149.85
  0
LINE
  8
0
 10
239.578
 11
239.95
 20
-149.85
 21
-149.538
  0
LINE
  8
0
 10
239.95
 11
240.407
 20
-149.538
 21
-149.371
  0
LINE
  8
0
 10
240.407
 11
240.893
 20
-149.371
 21
-149.371
  0
LINE
  8
0
 10
240.893
 11
241.35
 20
-149.371
 21
-149.538
  0
LINE
  8
0
 10
241.35
 11
241.722
 20
-149.538
 21
-149.85
  0
LINE
  8
0
 10
241.722
 11
241.966
 20
-149.85
 21
-150.271
  0
LINE
  8
0
 10
241.966
 11
242.05
 20
-150.271
 21
-150.75
  0
LINE
  8
0
 10
242.05
 11
241.966
 20
-150.75
 21
-151.229
  0
LINE
  8
0
 10
241.966
 11
241.722
 20
-151.229
 21
-151.65
  0
LINE
  8
0
 10
241.722
 11
241.35
 20
-151.65
 21
-151.962
  0
LINE
  8
0
 10
241.35
 11
240.893
 20
-151.962
 21
-152.129
  0
LINE
  8
0
 10
240.893
 11
240.407
 20
-152.129
 21
-152.129
  0
LINE
  8
0
 10
240.407
 11
239.95
 20
-152.129
 21
-151.962
  0
LINE
  8
0
 10
239.95
 11
239.578
 20
-151.962
 21
-151.65
  0
LINE
  8
0
 10
239.578
 11
239.334
 20
-151.65
 21
-151.229
  0
LINE
  8
0
 10
239.334
 11
239.25
 20
-151.229
 21
-150.75
  0
LINE
  8
0
 10
253.55
 11
253.634
 20
-134.85
 21
-134.371
  0
LINE
  8
0
 10
253.634
 11
253.878
 20
-134.371
 21
-133.95
  0
LINE
  8
0
 10
253.878
 11
254.25
 20
-133.95
 21
-133.638
  0
LINE
  8
0
 10
254.25
 11
254.707
 20
-133.638
 21
-133.471
  0
LINE
  8
0
 10
254.707
 11
255.193
 20
-133.471
 21
-133.471
  0
LINE
  8
0
 10
255.193
 11
255.65
 20
-133.471
 21
-133.638
  0
LINE
  8
0
 10
255.65
 11
256.022
 20
-133.638
 21
-133.95
  0
LINE
  8
0
 10
256.022
 11
256.266
 20
-133.95
 21
-134.371
  0
LINE
  8
0
 10
256.266
 11
256.35
 20
-134.371
 21
-134.85
  0
LINE
  8
0
 10
256.35
 11
256.266
 20
-134.85
 21
-135.329
  0
LINE
  8
0
 10
256.266
 11
256.022
 20
-135.329
 21
-135.75
  0
LINE
  8
0
 10
256.022
 11
255.65
 20
-135.75
 21
-136.062
  0
LINE
  8
0
 10
255.65
 11
255.193
 20
-136.062
 21
-136.229
  0
LINE
  8
0
 10
255.193
 11
254.707
 20
-136.229
 21
-136.229
  0
LINE
  8
0
 10
254.707
 11
254.25
 20
-136.229
 21
-136.062
  0
LINE
  8
0
 10
254.25
 11
253.878
 20
-136.062
 21
-135.75
  0
LINE
  8
0
 10
253.878
 11
253.634
 20
-135.75
 21
-135.329
  0
LINE
  8
0
 10
253.634
 11
253.55
 20
-135.329
 21
-134.85
  0
LINE
  8
0
 10
284.862
 11
284.917
 20
-31.65
 21
-31.16
  0
LINE
  8
0
 10
284.917
 11
285.079
 20
-31.16
 21
-30.695
  0
LINE
  8
0
 10
285.079
 11
285.342
 20
-30.695
 21
-30.278
  0
LINE
  8
0
 10
285.342
 11
285.69
 20
-30.278
 21
-29.93
  0
LINE
  8
0
 10
285.69
 11
286.107
 20
-29.93
 21
-29.668
  0
LINE
  8
0
 10
286.107
 11
286.572
 20
-29.668
 21
-29.505
  0
LINE
  8
0
 10
286.572
 11
287.062
 20
-29.505
 21
-29.45
  0
LINE
  8
0
 10
287.062
 11
287.551
 20
-29.45
 21
-29.505
  0
LINE
  8
0
 10
287.551
 11
288.016
 20
-29.505
 21
-29.668
  0
LINE
  8
0
 10
288.016
 11
288.433
 20
-29.668
 21
-29.93
  0
LINE
  8
0
 10
288.433
 11
288.782
 20
-29.93
 21
-30.278
  0
LINE
  8
0
 10
288.782
 11
289.044
 20
-30.278
 21
-30.695
  0
LINE
  8
0
 10
289.044
 11
289.206
 20
-30.695
 21
-31.16
  0
LINE
  8
0
 10
289.206
 11
289.262
 20
-31.16
 21
-31.65
  0
LINE
  8
0
 10
289.262
 11
289.206
 20
-31.65
 21
-32.14
  0
LINE
  8
0
 10
289.206
 11
289.044
 20
-32.14
 21
-32.605
  0
LINE
  8
0
 10
289.044
 11
288.782
 20
-32.605
 21
-33.022
  0
LINE
  8
0
 10
288.782
 11
288.433
 20
-33.022
 21
-33.37
  0
LINE
  8
0
 10
288.433
 11
288.016
 20
-33.37
 21
-33.632
  0
LINE
  8
0
 10
288.016
 11
287.551
 20
-33.632
 21
-33.795
  0
LINE
  8
0
 10
287.551
 11
287.062
 20
-33.795
 21
-33.85
  0
LINE
  8
0
 10
287.062
 11
286.572
 20
-33.85
 21
-33.795
  0
LINE
  8
0
 10
286.572
 11
286.107
 20
-33.795
 21
-33.632
  0
LINE
  8
0
 10
286.107
 11
285.69
 20
-33.632
 21
-33.37
  0
LINE
  8
0
 10
285.69
 11
285.342
 20
-33.37
 21
-33.022
  0
LINE
  8
0
 10
285.342
 11
285.079
 20
-33.022
 21
-32.605
  0
LINE
  8
0
 10
285.079
 11
284.917
 20
-32.605
 21
-32.14
  0
LINE
  8
0
 10
284.917
 11
284.862
 20
-32.14
 21
-31.65
  0
LINE
  8
0
 10
337.48
 11
337.535
 20
-7.2
 21
-6.71
  0
LINE
  8
0
 10
337.535
 11
337.698
 20
-6.71
 21
-6.245
  0
LINE
  8
0
 10
337.698
 11
337.96
 20
-6.245
 21
-5.828
  0
LINE
  8
0
 10
337.96
 11
338.308
 20
-5.828
 21
-5.48
  0
LINE
  8
0
 10
338.308
 11
338.725
 20
-5.48
 21
-5.218
  0
LINE
  8
0
 10
338.725
 11
339.19
 20
-5.218
 21
-5.055
  0
LINE
  8
0
 10
339.19
 11
339.68
 20
-5.055
 21
-5
  0
LINE
  8
0
 10
339.68
 11
340.17
 20
-5
 21
-5.055
  0
LINE
  8
0
 10
340.17
 11
340.635
 20
-5.055
 21
-5.218
  0
LINE
  8
0
 10
340.635
 11
341.052
 20
-5.218
 21
-5.48
  0
LINE
  8
0
 10
341.052
 11
341.4
 20
-5.48
 21
-5.828
  0
LINE
  8
0
 10
341.4
 11
341.662
 20
-5.828
 21
-6.245
  0
LINE
  8
0
 10
341.662
 11
341.825
 20
-6.245
 21
-6.71
  0
LINE
  8
0
 10
341.825
 11
341.88
 20
-6.71
 21
-7.2
  0
LINE
  8
0
 10
341.88
 11
341.825
 20
-7.2
 21
-7.69
  0
LINE
  8
0
 10
341.825
 11
341.662
 20
-7.69
 21
-8.155
  0
LINE
  8
0
 10
341.662
 11
341.4
 20
-8.155
 21
-8.572
  0
LINE
  8
0
 10
341.4
 11
341.052
 20
-8.572
 21
-8.92
  0
LINE
  8
0
 10
341.052
 11
340.635
 20
-8.92
 21
-9.182
  0
LINE
  8
0
 10
340.635
 11
340.17
 20
-9.182
 21
-9.345
  0
LINE
  8
0
 10
340.17
 11
339.68
 20
-9.345
 21
-9.4
  0
LINE
  8
0
 10
339.68
 11
339.19
 20
-9.4
 21
-9.345
  0
LINE
  8
0
 10
339.19
 11
338.725
 20
-9.345
 21
-9.182
  0
LINE
  8
0
 10
338.725
 11
338.308
 20
-9.182
 21
-8.92
  0
LINE
  8
0
 10
338.308
 11
337.96
 20
-8.92
 21
-8.572
  0
LINE
  8
0
 10
337.96
 11
337.698
 20
-8.572
 21
-8.155
  0
LINE
  8
0
 10
337.698
 11
337.535
 20
-8.155
 21
-7.69
  0
LINE
  8
0
 10
337.535
 11
337.48
 20
-7.69
 21
-7.2
  0
LINE
  8
0
 10
358.7
 11
358.755
 20
-7.2
 21
-6.71
  0
LINE
  8
0
 10
358.755
 11
358.918
 20
-6.71
 21
-6.245
  0
LINE
  8
0
 10
358.918
 11
359.18
 20
-6.245
 21
-5.828
  0
LINE
  8
0
 10
359.18
 11
359.528
 20
-5.828
 21
-5.48
  0
LINE
  8
0
 10
359.528
 11
359.945
 20
-5.48
 21
-5.218
  0
LINE
  8
0
 10
359.945
 11
360.41
 20
-5.218
 21
-5.055
  0
LINE
  8
0
 10
360.41
 11
360.9
 20
-5.055
 21
-5
  0
LINE
  8
0
 10
360.9
 11
361.39
 20
-5
 21
-5.055
  0
LINE
  8
0
 10
361.39
 11
361.855
 20
-5.055
 21
-5.218
  0
LINE
  8
0
 10
361.855
 11
362.272
 20
-5.218
 21
-5.48
  0
LINE
  8
0
 10
362.272
 11
362.62
 20
-5.48
 21
-5.828
  0
LINE
  8
0
 10
362.62
 11
362.882
 20
-5.828
 21
-6.245
  0
LINE
  8
0
 10
362.882
 11
363.045
 20
-6.245
 21
-6.71
  0
LINE
  8
0
 10
363.045
 11
363.1
 20
-6.71
 21
-7.2
  0
LINE
  8
0
 10
363.1
 11
363.045
 20
-7.2
 21
-7.69
  0
LINE
  8
0
 10
363.045
 11
362.882
 20
-7.69
 21
-8.155
  0
LINE
  8
0
 10
362.882
 11
362.62
 20
-8.155
 21
-8.572
  0
LINE
  8
0
 10
362.62
 11
362.272
 20
-8.572
 21
-8.92
  0
LINE
  8
0
 10
362.272
 11
361.855
 20
-8.92
 21
-9.182
  0
LINE
  8
0
 10
361.855
 11
361.39
 20
-9.182
 21
-9.345
  0
LINE
  8
0
 10
361.39
 11
360.9
 20
-9.345
 21
-9.4
  0
LINE
  8
0
 10
360.9
 11
360.41
 20
-9.4
 21
-9.345
  0
LINE
  8
0
 10
360.41
 11
359.945
 20
-9.345
 21
-9.182
  0
LINE
  8
0
 10
359.945
 11
359.528
 20
-9.182
 21
-8.92
  0
LINE
  8
0
 10
359.528
 11
359.18
 20
-8.92
 21
-8.572
  0
LINE
  8
0
 10
359.18
 11
358.918
 20
-8.572
 21
-8.155
  0
LINE
  8
0
 10
358.918
 11
358.755
 20
-8.155
 21
-7.69
  0
LINE
  8
0
 10
358.755
 11
358.7
 20
-7.69
 21
-7.2
  0
LINE
  8
0
 10
372.885
 11
372.921
 20
-104.078
 21
-103.588
  0
LINE
  8
0
 10
372.921
 11
373.101
 20
-103.588
 21
-103.13
  0
LINE
  8
0
 10
373.101
 11
373.408
 20
-103.13
 21
-102.745
  0
LINE
  8
0
 10
373.408
 11
373.814
 20
-102.745
 21
-102.468
  0
LINE
  8
0
 10
373.814
 11
374.284
 20
-102.468
 21
-102.323
  0
LINE
  8
0
 10
374.284
 11
374.776
 20
-102.323
 21
-102.323
  0
LINE
  8
0
 10
374.776
 11
375.246
 20
-102.323
 21
-102.468
  0
LINE
  8
0
 10
375.246
 11
375.652
 20
-102.468
 21
-102.745
  0
LINE
  8
0
 10
375.652
 11
375.959
 20
-102.745
 21
-103.13
  0
LINE
  8
0
 10
375.959
 11
376.139
 20
-103.13
 21
-103.588
  0
LINE
  8
0
 10
376.139
 11
376.175
 20
-103.588
 21
-104.078
  0
LINE
  8
0
 10
376.175
 11
376.066
 20
-104.078
 21
-104.558
  0
LINE
  8
0
 10
376.066
 11
375.82
 20
-104.558
 21
-104.984
  0
LINE
  8
0
 10
375.82
 11
375.459
 20
-104.984
 21
-105.318
  0
LINE
  8
0
 10
375.459
 11
375.016
 20
-105.318
 21
-105.532
  0
LINE
  8
0
 10
375.016
 11
374.53
 20
-105.532
 21
-105.605
  0
LINE
  8
0
 10
374.53
 11
374.044
 20
-105.605
 21
-105.532
  0
LINE
  8
0
 10
374.044
 11
373.601
 20
-105.532
 21
-105.318
  0
LINE
  8
0
 10
373.601
 11
373.24
 20
-105.318
 21
-104.984
  0
LINE
  8
0
 10
373.24
 11
372.994
 20
-104.984
 21
-104.558
  0
LINE
  8
0
 10
372.994
 11
372.885
 20
-104.558
 21
-104.078
  0
LINE
  8
0
 10
372.885
 11
372.921
 20
-62.168
 21
-61.678
  0
LINE
  8
0
 10
372.921
 11
373.101
 20
-61.678
 21
-61.22
  0
LINE
  8
0
 10
373.101
 11
373.408
 20
-61.22
 21
-60.835
  0
LINE
  8
0
 10
373.408
 11
373.814
 20
-60.835
 21
-60.558
  0
LINE
  8
0
 10
373.814
 11
374.284
 20
-60.558
 21
-60.413
  0
LINE
  8
0
 10
374.284
 11
374.776
 20
-60.413
 21
-60.413
  0
LINE
  8
0
 10
374.776
 11
375.246
 20
-60.413
 21
-60.558
  0
LINE
  8
0
 10
375.246
 11
375.652
 20
-60.558
 21
-60.835
  0
LINE
  8
0
 10
375.652
 11
375.959
 20
-60.835
 21
-61.22
  0
LINE
  8
0
 10
375.959
 11
376.139
 20
-61.22
 21
-61.678
  0
LINE
  8
0
 10
376.139
 11
376.175
 20
-61.678
 21
-62.168
  0
LINE
  8
0
 10
376.175
 11
376.066
 20
-62.168
 21
-62.648
  0
LINE
  8
0
 10
376.066
 11
375.82
 20
-62.648
 21
-63.074
  0
LINE
  8
0
 10
375.82
 11
375.459
 20
-63.074
 21
-63.408
  0
LINE
  8
0
 10
375.459
 11
375.016
 20
-63.408
 21
-63.622
  0
LINE
  8
0
 10
375.016
 11
374.53
 20
-63.622
 21
-63.695
  0
LINE
  8
0
 10
374.53
 11
374.044
 20
-63.695
 21
-63.622
  0
LINE
  8
0
 10
374.044
 11
373.601
 20
-63.622
 21
-63.408
  0
LINE
  8
0
 10
373.601
 11
373.24
 20
-63.408
 21
-63.074
  0
LINE
  8
0
 10
373.24
 11
372.994
 20
-63.074
 21
-62.648
  0
LINE
  8
0
 10
372.994
 11
372.885
 20
-62.648
 21
-62.168
  0
ENDSEC
  0
SECTION
  2
OBJECTS
  0
DICTIONARY
  0
ENDSEC
  0
EOF
