  0
SECTION
  2
BLOCKS
  0
ENDSEC
  0
SECTION
  2
ENTITIES
  0
LINE
  8
0
 10
-96
 11
-96
 20
-108
 21
108
  0
LINE
  8
0
 10
-96
 11
-28.16
 20
108
 21
108
  0
LINE
  8
0
 10
-28.16
 11
-28.16
 20
108
 21
73
  0
LINE
  8
0
 10
-28.16
 11
28.16
 20
73
 21
73
  0
LINE
  8
0
 10
28.16
 11
28.16
 20
73
 21
108
  0
LINE
  8
0
 10
28.16
 11
96
 20
108
 21
108
  0
LINE
  8
0
 10
96
 11
96
 20
108
 21
-108
  0
LINE
  8
0
 10
96
 11
-96
 20
-108
 21
-108
  0
LINE
  8
0
 10
-79.3
 11
-79.3
 20
-74
 21
-64
  0
LINE
  8
0
 10
-79.3
 11
-69.3
 20
-64
 21
-64
  0
LINE
  8
0
 10
-69.3
 11
-69.3
 20
-64
 21
-74
  0
LINE
  8
0
 10
-69.3
 11
-79.3
 20
-74
 21
-74
  0
LINE
  8
0
 10
-79.3
 11
-79.3
 20
84
 21
94
  0
LINE
  8
0
 10
-79.3
 11
-69.3
 20
94
 21
94
  0
LINE
  8
0
 10
-69.3
 11
-69.3
 20
94
 21
84
  0
LINE
  8
0
 10
-69.3
 11
-79.3
 20
84
 21
84
  0
LINE
  8
0
 10
-36.51
 11
-36.51
 20
-58.175
 21
-33.525
  0
LINE
  8
0
 10
-36.51
 11
-26.51
 20
-33.525
 21
-33.525
  0
LINE
  8
0
 10
-26.51
 11
-26.51
 20
-33.525
 21
-58.175
  0
LINE
  8
0
 10
-26.51
 11
-36.51
 20
-58.175
 21
-58.175
  0
LINE
  8
0
 10
-36.51
 11
-36.51
 20
40.675
 21
65.325
  0
LINE
  8
0
 10
-36.51
 11
-26.51
 20
65.325
 21
65.325
  0
LINE
  8
0
 10
-26.51
 11
-26.51
 20
65.325
 21
40.675
  0
LINE
  8
0
 10
-26.51
 11
-36.51
 20
40.675
 21
40.675
  0
LINE
  8
0
 10
69.3
 11
69.3
 20
-15
 21
-5
  0
LINE
  8
0
 10
69.3
 11
79.3
 20
-5
 21
-5
  0
LINE
  8
0
 10
79.3
 11
79.3
 20
-5
 21
-15
  0
LINE
  8
0
 10
79.3
 11
69.3
 20
-15
 21
-15
  0
ENDSEC
  0
SECTION
  2
OBJECTS
  0
DICTIONARY
  0
ENDSEC
  0
EOF
