  0
SECTION
  2
BLOCKS
  0
ENDSEC
  0
SECTION
  2
ENTITIES
  0
LINE
  8
0
 10
-216.572
 11
-216.572
 20
54.454
 21
54.946
  0
LINE
  8
0
 10
-216.572
 11
-216.427
 20
54.946
 21
55.416
  0
LINE
  8
0
 10
-216.427
 11
-216.15
 20
55.416
 21
55.822
  0
LINE
  8
0
 10
-216.15
 11
-215.765
 20
55.822
 21
56.129
  0
LINE
  8
0
 10
-215.765
 11
-215.307
 20
56.129
 21
56.309
  0
LINE
  8
0
 10
-215.307
 11
-214.817
 20
56.309
 21
56.345
  0
LINE
  8
0
 10
-214.817
 11
-214.337
 20
56.345
 21
56.236
  0
LINE
  8
0
 10
-214.337
 11
-213.911
 20
56.236
 21
55.99
  0
LINE
  8
0
 10
-213.911
 11
-213.577
 20
55.99
 21
55.629
  0
LINE
  8
0
 10
-213.577
 11
-213.363
 20
55.629
 21
55.186
  0
LINE
  8
0
 10
-213.363
 11
-213.29
 20
55.186
 21
54.7
  0
LINE
  8
0
 10
-213.29
 11
-213.363
 20
54.7
 21
54.214
  0
LINE
  8
0
 10
-213.363
 11
-213.577
 20
54.214
 21
53.771
  0
LINE
  8
0
 10
-213.577
 11
-213.911
 20
53.771
 21
53.41
  0
LINE
  8
0
 10
-213.911
 11
-214.337
 20
53.41
 21
53.164
  0
LINE
  8
0
 10
-214.337
 11
-214.817
 20
53.164
 21
53.055
  0
LINE
  8
0
 10
-214.817
 11
-215.307
 20
53.055
 21
53.091
  0
LINE
  8
0
 10
-215.307
 11
-215.765
 20
53.091
 21
53.271
  0
LINE
  8
0
 10
-215.765
 11
-216.15
 20
53.271
 21
53.578
  0
LINE
  8
0
 10
-216.15
 11
-216.427
 20
53.578
 21
53.984
  0
LINE
  8
0
 10
-216.427
 11
-216.572
 20
53.984
 21
54.454
  0
LINE
  8
0
 10
-206.742
 11
-206.742
 20
-0.246
 21
0.246
  0
LINE
  8
0
 10
-206.742
 11
-206.682
 20
0.246
 21
0.735
  0
LINE
  8
0
 10
-206.682
 11
-206.562
 20
0.735
 21
1.213
  0
LINE
  8
0
 10
-206.562
 11
-206.384
 20
1.213
 21
1.672
  0
LINE
  8
0
 10
-206.384
 11
-206.151
 20
1.672
 21
2.106
  0
LINE
  8
0
 10
-206.151
 11
-205.866
 20
2.106
 21
2.508
  0
LINE
  8
0
 10
-205.866
 11
-205.535
 20
2.508
 21
2.872
  0
LINE
  8
0
 10
-205.535
 11
-205.161
 20
2.872
 21
3.192
  0
LINE
  8
0
 10
-205.161
 11
-204.75
 20
3.192
 21
3.464
  0
LINE
  8
0
 10
-204.75
 11
-204.309
 20
3.464
 21
3.684
  0
LINE
  8
0
 10
-204.309
 11
-203.845
 20
3.684
 21
3.847
  0
LINE
  8
0
 10
-203.845
 11
-203.364
 20
3.847
 21
3.953
  0
LINE
  8
0
 10
-203.364
 11
-202.873
 20
3.953
 21
3.998
  0
LINE
  8
0
 10
-202.873
 11
-202.381
 20
3.998
 21
3.983
  0
LINE
  8
0
 10
-202.381
 11
-201.894
 20
3.983
 21
3.907
  0
LINE
  8
0
 10
-201.894
 11
-201.421
 20
3.907
 21
3.773
  0
LINE
  8
0
 10
-201.421
 11
-200.967
 20
3.773
 21
3.581
  0
LINE
  8
0
 10
-200.967
 11
-200.541
 20
3.581
 21
3.334
  0
LINE
  8
0
 10
-200.541
 11
-200.148
 20
3.334
 21
3.038
  0
LINE
  8
0
 10
-200.148
 11
-199.794
 20
3.038
 21
2.695
  0
LINE
  8
0
 10
-199.794
 11
-199.485
 20
2.695
 21
2.311
  0
LINE
  8
0
 10
-199.485
 11
-199.226
 20
2.311
 21
1.892
  0
LINE
  8
0
 10
-199.226
 11
-199.02
 20
1.892
 21
1.445
  0
LINE
  8
0
 10
-199.02
 11
-198.871
 20
1.445
 21
0.976
  0
LINE
  8
0
 10
-198.871
 11
-198.78
 20
0.976
 21
0.492
  0
LINE
  8
0
 10
-198.78
 11
-198.75
 20
0.492
 21
0
  0
LINE
  8
0
 10
-198.75
 11
-198.78
 20
0
 21
-0.492
  0
LINE
  8
0
 10
-198.78
 11
-198.871
 20
-0.492
 21
-0.976
  0
LINE
  8
0
 10
-198.871
 11
-199.02
 20
-0.976
 21
-1.445
  0
LINE
  8
0
 10
-199.02
 11
-199.226
 20
-1.445
 21
-1.892
  0
LINE
  8
0
 10
-199.226
 11
-199.485
 20
-1.892
 21
-2.311
  0
LINE
  8
0
 10
-199.485
 11
-199.794
 20
-2.311
 21
-2.695
  0
LINE
  8
0
 10
-199.794
 11
-200.148
 20
-2.695
 21
-3.038
  0
LINE
  8
0
 10
-200.148
 11
-200.541
 20
-3.038
 21
-3.334
  0
LINE
  8
0
 10
-200.541
 11
-200.967
 20
-3.334
 21
-3.581
  0
LINE
  8
0
 10
-200.967
 11
-201.421
 20
-3.581
 21
-3.773
  0
LINE
  8
0
 10
-201.421
 11
-201.894
 20
-3.773
 21
-3.907
  0
LINE
  8
0
 10
-201.894
 11
-202.381
 20
-3.907
 21
-3.983
  0
LINE
  8
0
 10
-202.381
 11
-202.873
 20
-3.983
 21
-3.998
  0
LINE
  8
0
 10
-202.873
 11
-203.364
 20
-3.998
 21
-3.953
  0
LINE
  8
0
 10
-203.364
 11
-203.845
 20
-3.953
 21
-3.847
  0
LINE
  8
0
 10
-203.845
 11
-204.309
 20
-3.847
 21
-3.684
  0
LINE
  8
0
 10
-204.309
 11
-204.75
 20
-3.684
 21
-3.464
  0
LINE
  8
0
 10
-204.75
 11
-205.161
 20
-3.464
 21
-3.192
  0
LINE
  8
0
 10
-205.161
 11
-205.535
 20
-3.192
 21
-2.872
  0
LINE
  8
0
 10
-205.535
 11
-205.866
 20
-2.872
 21
-2.508
  0
LINE
  8
0
 10
-205.866
 11
-206.151
 20
-2.508
 21
-2.106
  0
LINE
  8
0
 10
-206.151
 11
-206.384
 20
-2.106
 21
-1.672
  0
LINE
  8
0
 10
-206.384
 11
-206.562
 20
-1.672
 21
-1.213
  0
LINE
  8
0
 10
-206.562
 11
-206.682
 20
-1.213
 21
-0.735
  0
LINE
  8
0
 10
-206.682
 11
-206.742
 20
-0.735
 21
-0.246
  0
LINE
  8
0
 10
-168.695
 11
-168.659
 20
190.567
 21
191.057
  0
LINE
  8
0
 10
-168.659
 11
-168.479
 20
191.057
 21
191.515
  0
LINE
  8
0
 10
-168.479
 11
-168.172
 20
191.515
 21
191.9
  0
LINE
  8
0
 10
-168.172
 11
-167.766
 20
191.9
 21
192.177
  0
LINE
  8
0
 10
-167.766
 11
-167.296
 20
192.177
 21
192.322
  0
LINE
  8
0
 10
-167.296
 11
-166.804
 20
192.322
 21
192.322
  0
LINE
  8
0
 10
-166.804
 11
-166.334
 20
192.322
 21
192.177
  0
LINE
  8
0
 10
-166.334
 11
-165.928
 20
192.177
 21
191.9
  0
LINE
  8
0
 10
-165.928
 11
-165.621
 20
191.9
 21
191.515
  0
LINE
  8
0
 10
-165.621
 11
-165.441
 20
191.515
 21
191.057
  0
LINE
  8
0
 10
-165.441
 11
-165.405
 20
191.057
 21
190.567
  0
LINE
  8
0
 10
-165.405
 11
-165.514
 20
190.567
 21
190.087
  0
LINE
  8
0
 10
-165.514
 11
-165.76
 20
190.087
 21
189.661
  0
LINE
  8
0
 10
-165.76
 11
-166.121
 20
189.661
 21
189.327
  0
LINE
  8
0
 10
-166.121
 11
-166.564
 20
189.327
 21
189.113
  0
LINE
  8
0
 10
-166.564
 11
-167.05
 20
189.113
 21
189.04
  0
LINE
  8
0
 10
-167.05
 11
-167.536
 20
189.04
 21
189.113
  0
LINE
  8
0
 10
-167.536
 11
-167.979
 20
189.113
 21
189.327
  0
LINE
  8
0
 10
-167.979
 11
-168.34
 20
189.327
 21
189.661
  0
LINE
  8
0
 10
-168.34
 11
-168.586
 20
189.661
 21
190.087
  0
LINE
  8
0
 10
-168.586
 11
-168.695
 20
190.087
 21
190.567
  0
LINE
  8
0
 10
-153.192
 11
-153.192
 20
54.454
 21
54.946
  0
LINE
  8
0
 10
-153.192
 11
-153.047
 20
54.946
 21
55.416
  0
LINE
  8
0
 10
-153.047
 11
-152.77
 20
55.416
 21
55.822
  0
LINE
  8
0
 10
-152.77
 11
-152.385
 20
55.822
 21
56.129
  0
LINE
  8
0
 10
-152.385
 11
-151.927
 20
56.129
 21
56.309
  0
LINE
  8
0
 10
-151.927
 11
-151.437
 20
56.309
 21
56.345
  0
LINE
  8
0
 10
-151.437
 11
-150.957
 20
56.345
 21
56.236
  0
LINE
  8
0
 10
-150.957
 11
-150.531
 20
56.236
 21
55.99
  0
LINE
  8
0
 10
-150.531
 11
-150.197
 20
55.99
 21
55.629
  0
LINE
  8
0
 10
-150.197
 11
-149.983
 20
55.629
 21
55.186
  0
LINE
  8
0
 10
-149.983
 11
-149.91
 20
55.186
 21
54.7
  0
LINE
  8
0
 10
-149.91
 11
-149.983
 20
54.7
 21
54.214
  0
LINE
  8
0
 10
-149.983
 11
-150.197
 20
54.214
 21
53.771
  0
LINE
  8
0
 10
-150.197
 11
-150.531
 20
53.771
 21
53.41
  0
LINE
  8
0
 10
-150.531
 11
-150.957
 20
53.41
 21
53.164
  0
LINE
  8
0
 10
-150.957
 11
-151.437
 20
53.164
 21
53.055
  0
LINE
  8
0
 10
-151.437
 11
-151.927
 20
53.055
 21
53.091
  0
LINE
  8
0
 10
-151.927
 11
-152.385
 20
53.091
 21
53.271
  0
LINE
  8
0
 10
-152.385
 11
-152.77
 20
53.271
 21
53.578
  0
LINE
  8
0
 10
-152.77
 11
-153.047
 20
53.578
 21
53.984
  0
LINE
  8
0
 10
-153.047
 11
-153.192
 20
53.984
 21
54.454
  0
LINE
  8
0
 10
-108.895
 11
-108.786
 20
-202.377
 21
-201.897
  0
LINE
  8
0
 10
-108.786
 11
-108.54
 20
-201.897
 21
-201.471
  0
LINE
  8
0
 10
-108.54
 11
-108.179
 20
-201.471
 21
-201.137
  0
LINE
  8
0
 10
-108.179
 11
-107.736
 20
-201.137
 21
-200.923
  0
LINE
  8
0
 10
-107.736
 11
-107.25
 20
-200.923
 21
-200.85
  0
LINE
  8
0
 10
-107.25
 11
-106.764
 20
-200.85
 21
-200.923
  0
LINE
  8
0
 10
-106.764
 11
-106.321
 20
-200.923
 21
-201.137
  0
LINE
  8
0
 10
-106.321
 11
-105.96
 20
-201.137
 21
-201.471
  0
LINE
  8
0
 10
-105.96
 11
-105.714
 20
-201.471
 21
-201.897
  0
LINE
  8
0
 10
-105.714
 11
-105.605
 20
-201.897
 21
-202.377
  0
LINE
  8
0
 10
-105.605
 11
-105.641
 20
-202.377
 21
-202.867
  0
LINE
  8
0
 10
-105.641
 11
-105.821
 20
-202.867
 21
-203.325
  0
LINE
  8
0
 10
-105.821
 11
-106.128
 20
-203.325
 21
-203.71
  0
LINE
  8
0
 10
-106.128
 11
-106.534
 20
-203.71
 21
-203.987
  0
LINE
  8
0
 10
-106.534
 11
-107.004
 20
-203.987
 21
-204.132
  0
LINE
  8
0
 10
-107.004
 11
-107.496
 20
-204.132
 21
-204.132
  0
LINE
  8
0
 10
-107.496
 11
-107.966
 20
-204.132
 21
-203.987
  0
LINE
  8
0
 10
-107.966
 11
-108.372
 20
-203.987
 21
-203.71
  0
LINE
  8
0
 10
-108.372
 11
-108.679
 20
-203.71
 21
-203.325
  0
LINE
  8
0
 10
-108.679
 11
-108.859
 20
-203.325
 21
-202.867
  0
LINE
  8
0
 10
-108.859
 11
-108.895
 20
-202.867
 21
-202.377
  0
LINE
  8
0
 10
-108.895
 11
-108.786
 20
202.623
 21
203.103
  0
LINE
  8
0
 10
-108.786
 11
-108.54
 20
203.103
 21
203.529
  0
LINE
  8
0
 10
-108.54
 11
-108.179
 20
203.529
 21
203.863
  0
LINE
  8
0
 10
-108.179
 11
-107.736
 20
203.863
 21
204.077
  0
LINE
  8
0
 10
-107.736
 11
-107.25
 20
204.077
 21
204.15
  0
LINE
  8
0
 10
-107.25
 11
-106.764
 20
204.15
 21
204.077
  0
LINE
  8
0
 10
-106.764
 11
-106.321
 20
204.077
 21
203.863
  0
LINE
  8
0
 10
-106.321
 11
-105.96
 20
203.863
 21
203.529
  0
LINE
  8
0
 10
-105.96
 11
-105.714
 20
203.529
 21
203.103
  0
LINE
  8
0
 10
-105.714
 11
-105.605
 20
203.103
 21
202.623
  0
LINE
  8
0
 10
-105.605
 11
-105.641
 20
202.623
 21
202.133
  0
LINE
  8
0
 10
-105.641
 11
-105.821
 20
202.133
 21
201.675
  0
LINE
  8
0
 10
-105.821
 11
-106.128
 20
201.675
 21
201.29
  0
LINE
  8
0
 10
-106.128
 11
-106.534
 20
201.29
 21
201.013
  0
LINE
  8
0
 10
-106.534
 11
-107.004
 20
201.013
 21
200.868
  0
LINE
  8
0
 10
-107.004
 11
-107.496
 20
200.868
 21
200.868
  0
LINE
  8
0
 10
-107.496
 11
-107.966
 20
200.868
 21
201.013
  0
LINE
  8
0
 10
-107.966
 11
-108.372
 20
201.013
 21
201.29
  0
LINE
  8
0
 10
-108.372
 11
-108.679
 20
201.29
 21
201.675
  0
LINE
  8
0
 10
-108.679
 11
-108.859
 20
201.675
 21
202.133
  0
LINE
  8
0
 10
-108.859
 11
-108.895
 20
202.133
 21
202.623
  0
LINE
  8
0
 10
-75.895
 11
-75.786
 20
-202.377
 21
-201.897
  0
LINE
  8
0
 10
-75.786
 11
-75.54
 20
-201.897
 21
-201.471
  0
LINE
  8
0
 10
-75.54
 11
-75.179
 20
-201.471
 21
-201.137
  0
LINE
  8
0
 10
-75.179
 11
-74.736
 20
-201.137
 21
-200.923
  0
LINE
  8
0
 10
-74.736
 11
-74.25
 20
-200.923
 21
-200.85
  0
LINE
  8
0
 10
-74.25
 11
-73.764
 20
-200.85
 21
-200.923
  0
LINE
  8
0
 10
-73.764
 11
-73.321
 20
-200.923
 21
-201.137
  0
LINE
  8
0
 10
-73.321
 11
-72.96
 20
-201.137
 21
-201.471
  0
LINE
  8
0
 10
-72.96
 11
-72.714
 20
-201.471
 21
-201.897
  0
LINE
  8
0
 10
-72.714
 11
-72.605
 20
-201.897
 21
-202.377
  0
LINE
  8
0
 10
-72.605
 11
-72.641
 20
-202.377
 21
-202.867
  0
LINE
  8
0
 10
-72.641
 11
-72.821
 20
-202.867
 21
-203.325
  0
LINE
  8
0
 10
-72.821
 11
-73.128
 20
-203.325
 21
-203.71
  0
LINE
  8
0
 10
-73.128
 11
-73.534
 20
-203.71
 21
-203.987
  0
LINE
  8
0
 10
-73.534
 11
-74.004
 20
-203.987
 21
-204.132
  0
LINE
  8
0
 10
-74.004
 11
-74.496
 20
-204.132
 21
-204.132
  0
LINE
  8
0
 10
-74.496
 11
-74.966
 20
-204.132
 21
-203.987
  0
LINE
  8
0
 10
-74.966
 11
-75.372
 20
-203.987
 21
-203.71
  0
LINE
  8
0
 10
-75.372
 11
-75.679
 20
-203.71
 21
-203.325
  0
LINE
  8
0
 10
-75.679
 11
-75.859
 20
-203.325
 21
-202.867
  0
LINE
  8
0
 10
-75.859
 11
-75.895
 20
-202.867
 21
-202.377
  0
LINE
  8
0
 10
-75.895
 11
-75.786
 20
202.623
 21
203.103
  0
LINE
  8
0
 10
-75.786
 11
-75.54
 20
203.103
 21
203.529
  0
LINE
  8
0
 10
-75.54
 11
-75.179
 20
203.529
 21
203.863
  0
LINE
  8
0
 10
-75.179
 11
-74.736
 20
203.863
 21
204.077
  0
LINE
  8
0
 10
-74.736
 11
-74.25
 20
204.077
 21
204.15
  0
LINE
  8
0
 10
-74.25
 11
-73.764
 20
204.15
 21
204.077
  0
LINE
  8
0
 10
-73.764
 11
-73.321
 20
204.077
 21
203.863
  0
LINE
  8
0
 10
-73.321
 11
-72.96
 20
203.863
 21
203.529
  0
LINE
  8
0
 10
-72.96
 11
-72.714
 20
203.529
 21
203.103
  0
LINE
  8
0
 10
-72.714
 11
-72.605
 20
203.103
 21
202.623
  0
LINE
  8
0
 10
-72.605
 11
-72.641
 20
202.623
 21
202.133
  0
LINE
  8
0
 10
-72.641
 11
-72.821
 20
202.133
 21
201.675
  0
LINE
  8
0
 10
-72.821
 11
-73.128
 20
201.675
 21
201.29
  0
LINE
  8
0
 10
-73.128
 11
-73.534
 20
201.29
 21
201.013
  0
LINE
  8
0
 10
-73.534
 11
-74.004
 20
201.013
 21
200.868
  0
LINE
  8
0
 10
-74.004
 11
-74.496
 20
200.868
 21
200.868
  0
LINE
  8
0
 10
-74.496
 11
-74.966
 20
200.868
 21
201.013
  0
LINE
  8
0
 10
-74.966
 11
-75.372
 20
201.013
 21
201.29
  0
LINE
  8
0
 10
-75.372
 11
-75.679
 20
201.29
 21
201.675
  0
LINE
  8
0
 10
-75.679
 11
-75.859
 20
201.675
 21
202.133
  0
LINE
  8
0
 10
-75.859
 11
-75.895
 20
202.133
 21
202.623
  0
LINE
  8
0
 10
-235.25
 11
-235.25
 20
-186
 21
186
  0
LINE
  8
0
 10
-235.25
 11
-235.155
 20
186
 21
188.179
  0
LINE
  8
0
 10
-235.155
 11
-234.87
 20
188.179
 21
190.341
  0
LINE
  8
0
 10
-234.87
 11
-234.398
 20
190.341
 21
192.47
  0
LINE
  8
0
 10
-234.398
 11
-233.742
 20
192.47
 21
194.551
  0
LINE
  8
0
 10
-233.742
 11
-232.908
 20
194.551
 21
196.565
  0
LINE
  8
0
 10
-232.908
 11
-231.901
 20
196.565
 21
198.5
  0
LINE
  8
0
 10
-231.901
 11
-230.729
 20
198.5
 21
200.339
  0
LINE
  8
0
 10
-230.729
 11
-229.401
 20
200.339
 21
202.07
  0
LINE
  8
0
 10
-229.401
 11
-227.928
 20
202.07
 21
203.678
  0
LINE
  8
0
 10
-227.928
 11
-226.32
 20
203.678
 21
205.151
  0
LINE
  8
0
 10
-226.32
 11
-224.589
 20
205.151
 21
206.479
  0
LINE
  8
0
 10
-224.589
 11
-222.75
 20
206.479
 21
207.651
  0
LINE
  8
0
 10
-222.75
 11
-220.815
 20
207.651
 21
208.658
  0
LINE
  8
0
 10
-220.815
 11
-218.801
 20
208.658
 21
209.492
  0
LINE
  8
0
 10
-218.801
 11
-216.72
 20
209.492
 21
210.148
  0
LINE
  8
0
 10
-216.72
 11
-214.591
 20
210.148
 21
210.62
  0
LINE
  8
0
 10
-214.591
 11
-212.429
 20
210.62
 21
210.905
  0
LINE
  8
0
 10
-212.429
 11
-210.25
 20
210.905
 21
211
  0
LINE
  8
0
 10
-210.25
 11
210.25
 20
211
 21
211
  0
LINE
  8
0
 10
210.25
 11
212.429
 20
211
 21
210.905
  0
LINE
  8
0
 10
212.429
 11
214.591
 20
210.905
 21
210.62
  0
LINE
  8
0
 10
214.591
 11
216.72
 20
210.62
 21
210.148
  0
LINE
  8
0
 10
216.72
 11
218.801
 20
210.148
 21
209.492
  0
LINE
  8
0
 10
218.801
 11
220.815
 20
209.492
 21
208.658
  0
LINE
  8
0
 10
220.815
 11
222.75
 20
208.658
 21
207.651
  0
LINE
  8
0
 10
222.75
 11
224.589
 20
207.651
 21
206.479
  0
LINE
  8
0
 10
224.589
 11
226.32
 20
206.479
 21
205.151
  0
LINE
  8
0
 10
226.32
 11
227.928
 20
205.151
 21
203.678
  0
LINE
  8
0
 10
227.928
 11
229.401
 20
203.678
 21
202.07
  0
LINE
  8
0
 10
229.401
 11
230.729
 20
202.07
 21
200.339
  0
LINE
  8
0
 10
230.729
 11
231.901
 20
200.339
 21
198.5
  0
LINE
  8
0
 10
231.901
 11
232.908
 20
198.5
 21
196.565
  0
LINE
  8
0
 10
232.908
 11
233.742
 20
196.565
 21
194.551
  0
LINE
  8
0
 10
233.742
 11
234.398
 20
194.551
 21
192.47
  0
LINE
  8
0
 10
234.398
 11
234.87
 20
192.47
 21
190.341
  0
LINE
  8
0
 10
234.87
 11
235.155
 20
190.341
 21
188.179
  0
LINE
  8
0
 10
235.155
 11
235.25
 20
188.179
 21
186
  0
LINE
  8
0
 10
235.25
 11
235.25
 20
186
 21
-186
  0
LINE
  8
0
 10
235.25
 11
235.155
 20
-186
 21
-188.179
  0
LINE
  8
0
 10
235.155
 11
234.87
 20
-188.179
 21
-190.341
  0
LINE
  8
0
 10
234.87
 11
234.398
 20
-190.341
 21
-192.47
  0
LINE
  8
0
 10
234.398
 11
233.742
 20
-192.47
 21
-194.551
  0
LINE
  8
0
 10
233.742
 11
232.908
 20
-194.551
 21
-196.565
  0
LINE
  8
0
 10
232.908
 11
231.901
 20
-196.565
 21
-198.5
  0
LINE
  8
0
 10
231.901
 11
230.729
 20
-198.5
 21
-200.339
  0
LINE
  8
0
 10
230.729
 11
229.401
 20
-200.339
 21
-202.07
  0
LINE
  8
0
 10
229.401
 11
227.928
 20
-202.07
 21
-203.678
  0
LINE
  8
0
 10
227.928
 11
226.32
 20
-203.678
 21
-205.151
  0
LINE
  8
0
 10
226.32
 11
224.589
 20
-205.151
 21
-206.479
  0
LINE
  8
0
 10
224.589
 11
222.75
 20
-206.479
 21
-207.651
  0
LINE
  8
0
 10
222.75
 11
220.815
 20
-207.651
 21
-208.658
  0
LINE
  8
0
 10
220.815
 11
218.801
 20
-208.658
 21
-209.492
  0
LINE
  8
0
 10
218.801
 11
216.72
 20
-209.492
 21
-210.148
  0
LINE
  8
0
 10
216.72
 11
214.591
 20
-210.148
 21
-210.62
  0
LINE
  8
0
 10
214.591
 11
212.429
 20
-210.62
 21
-210.905
  0
LINE
  8
0
 10
212.429
 11
210.25
 20
-210.905
 21
-211
  0
LINE
  8
0
 10
210.25
 11
-210.25
 20
-211
 21
-211
  0
LINE
  8
0
 10
-210.25
 11
-212.429
 20
-211
 21
-210.905
  0
LINE
  8
0
 10
-212.429
 11
-214.591
 20
-210.905
 21
-210.62
  0
LINE
  8
0
 10
-214.591
 11
-216.72
 20
-210.62
 21
-210.148
  0
LINE
  8
0
 10
-216.72
 11
-218.801
 20
-210.148
 21
-209.492
  0
LINE
  8
0
 10
-218.801
 11
-220.815
 20
-209.492
 21
-208.658
  0
LINE
  8
0
 10
-220.815
 11
-222.75
 20
-208.658
 21
-207.651
  0
LINE
  8
0
 10
-222.75
 11
-224.589
 20
-207.651
 21
-206.479
  0
LINE
  8
0
 10
-224.589
 11
-226.32
 20
-206.479
 21
-205.151
  0
LINE
  8
0
 10
-226.32
 11
-227.928
 20
-205.151
 21
-203.678
  0
LINE
  8
0
 10
-227.928
 11
-229.401
 20
-203.678
 21
-202.07
  0
LINE
  8
0
 10
-229.401
 11
-230.729
 20
-202.07
 21
-200.339
  0
LINE
  8
0
 10
-230.729
 11
-231.901
 20
-200.339
 21
-198.5
  0
LINE
  8
0
 10
-231.901
 11
-232.908
 20
-198.5
 21
-196.565
  0
LINE
  8
0
 10
-232.908
 11
-233.742
 20
-196.565
 21
-194.551
  0
LINE
  8
0
 10
-233.742
 11
-234.398
 20
-194.551
 21
-192.47
  0
LINE
  8
0
 10
-234.398
 11
-234.87
 20
-192.47
 21
-190.341
  0
LINE
  8
0
 10
-234.87
 11
-235.155
 20
-190.341
 21
-188.179
  0
LINE
  8
0
 10
-235.155
 11
-235.25
 20
-188.179
 21
-186
  0
LINE
  8
0
 10
-39.892
 11
-39.892
 20
188.254
 21
188.746
  0
LINE
  8
0
 10
-39.892
 11
-39.747
 20
188.746
 21
189.216
  0
LINE
  8
0
 10
-39.747
 11
-39.47
 20
189.216
 21
189.622
  0
LINE
  8
0
 10
-39.47
 11
-39.085
 20
189.622
 21
189.929
  0
LINE
  8
0
 10
-39.085
 11
-38.627
 20
189.929
 21
190.109
  0
LINE
  8
0
 10
-38.627
 11
-38.137
 20
190.109
 21
190.145
  0
LINE
  8
0
 10
-38.137
 11
-37.657
 20
190.145
 21
190.036
  0
LINE
  8
0
 10
-37.657
 11
-37.231
 20
190.036
 21
189.79
  0
LINE
  8
0
 10
-37.231
 11
-36.897
 20
189.79
 21
189.429
  0
LINE
  8
0
 10
-36.897
 11
-36.683
 20
189.429
 21
188.986
  0
LINE
  8
0
 10
-36.683
 11
-36.61
 20
188.986
 21
188.5
  0
LINE
  8
0
 10
-36.61
 11
-36.683
 20
188.5
 21
188.014
  0
LINE
  8
0
 10
-36.683
 11
-36.897
 20
188.014
 21
187.571
  0
LINE
  8
0
 10
-36.897
 11
-37.231
 20
187.571
 21
187.21
  0
LINE
  8
0
 10
-37.231
 11
-37.657
 20
187.21
 21
186.964
  0
LINE
  8
0
 10
-37.657
 11
-38.137
 20
186.964
 21
186.855
  0
LINE
  8
0
 10
-38.137
 11
-38.627
 20
186.855
 21
186.891
  0
LINE
  8
0
 10
-38.627
 11
-39.085
 20
186.891
 21
187.071
  0
LINE
  8
0
 10
-39.085
 11
-39.47
 20
187.071
 21
187.378
  0
LINE
  8
0
 10
-39.47
 11
-39.747
 20
187.378
 21
187.784
  0
LINE
  8
0
 10
-39.747
 11
-39.892
 20
187.784
 21
188.254
  0
LINE
  8
0
 10
-29.592
 11
-29.592
 20
98.254
 21
98.746
  0
LINE
  8
0
 10
-29.592
 11
-29.447
 20
98.746
 21
99.216
  0
LINE
  8
0
 10
-29.447
 11
-29.17
 20
99.216
 21
99.622
  0
LINE
  8
0
 10
-29.17
 11
-28.785
 20
99.622
 21
99.929
  0
LINE
  8
0
 10
-28.785
 11
-28.327
 20
99.929
 21
100.109
  0
LINE
  8
0
 10
-28.327
 11
-27.837
 20
100.109
 21
100.145
  0
LINE
  8
0
 10
-27.837
 11
-27.357
 20
100.145
 21
100.036
  0
LINE
  8
0
 10
-27.357
 11
-26.931
 20
100.036
 21
99.79
  0
LINE
  8
0
 10
-26.931
 11
-26.597
 20
99.79
 21
99.429
  0
LINE
  8
0
 10
-26.597
 11
-26.383
 20
99.429
 21
98.986
  0
LINE
  8
0
 10
-26.383
 11
-26.31
 20
98.986
 21
98.5
  0
LINE
  8
0
 10
-26.31
 11
-26.383
 20
98.5
 21
98.014
  0
LINE
  8
0
 10
-26.383
 11
-26.597
 20
98.014
 21
97.571
  0
LINE
  8
0
 10
-26.597
 11
-26.931
 20
97.571
 21
97.21
  0
LINE
  8
0
 10
-26.931
 11
-27.357
 20
97.21
 21
96.964
  0
LINE
  8
0
 10
-27.357
 11
-27.837
 20
96.964
 21
96.855
  0
LINE
  8
0
 10
-27.837
 11
-28.327
 20
96.855
 21
96.891
  0
LINE
  8
0
 10
-28.327
 11
-28.785
 20
96.891
 21
97.071
  0
LINE
  8
0
 10
-28.785
 11
-29.17
 20
97.071
 21
97.378
  0
LINE
  8
0
 10
-29.17
 11
-29.447
 20
97.378
 21
97.784
  0
LINE
  8
0
 10
-29.447
 11
-29.592
 20
97.784
 21
98.254
  0
LINE
  8
0
 10
-21.405
 11
-21.369
 20
-203.623
 21
-203.133
  0
LINE
  8
0
 10
-21.369
 11
-21.189
 20
-203.133
 21
-202.675
  0
LINE
  8
0
 10
-21.189
 11
-20.882
 20
-202.675
 21
-202.29
  0
LINE
  8
0
 10
-20.882
 11
-20.476
 20
-202.29
 21
-202.013
  0
LINE
  8
0
 10
-20.476
 11
-20.006
 20
-202.013
 21
-201.868
  0
LINE
  8
0
 10
-20.006
 11
-19.514
 20
-201.868
 21
-201.868
  0
LINE
  8
0
 10
-19.514
 11
-19.044
 20
-201.868
 21
-202.013
  0
LINE
  8
0
 10
-19.044
 11
-18.638
 20
-202.013
 21
-202.29
  0
LINE
  8
0
 10
-18.638
 11
-18.331
 20
-202.29
 21
-202.675
  0
LINE
  8
0
 10
-18.331
 11
-18.151
 20
-202.675
 21
-203.133
  0
LINE
  8
0
 10
-18.151
 11
-18.115
 20
-203.133
 21
-203.623
  0
LINE
  8
0
 10
-18.115
 11
-18.224
 20
-203.623
 21
-204.103
  0
LINE
  8
0
 10
-18.224
 11
-18.47
 20
-204.103
 21
-204.529
  0
LINE
  8
0
 10
-18.47
 11
-18.831
 20
-204.529
 21
-204.863
  0
LINE
  8
0
 10
-18.831
 11
-19.274
 20
-204.863
 21
-205.077
  0
LINE
  8
0
 10
-19.274
 11
-19.76
 20
-205.077
 21
-205.15
  0
LINE
  8
0
 10
-19.76
 11
-20.246
 20
-205.15
 21
-205.077
  0
LINE
  8
0
 10
-20.246
 11
-20.689
 20
-205.077
 21
-204.863
  0
LINE
  8
0
 10
-20.689
 11
-21.05
 20
-204.863
 21
-204.529
  0
LINE
  8
0
 10
-21.05
 11
-21.296
 20
-204.529
 21
-204.103
  0
LINE
  8
0
 10
-21.296
 11
-21.405
 20
-204.103
 21
-203.623
  0
LINE
  8
0
 10
-21.405
 11
-21.369
 20
-140.623
 21
-140.133
  0
LINE
  8
0
 10
-21.369
 11
-21.189
 20
-140.133
 21
-139.675
  0
LINE
  8
0
 10
-21.189
 11
-20.882
 20
-139.675
 21
-139.29
  0
LINE
  8
0
 10
-20.882
 11
-20.476
 20
-139.29
 21
-139.013
  0
LINE
  8
0
 10
-20.476
 11
-20.006
 20
-139.013
 21
-138.868
  0
LINE
  8
0
 10
-20.006
 11
-19.514
 20
-138.868
 21
-138.868
  0
LINE
  8
0
 10
-19.514
 11
-19.044
 20
-138.868
 21
-139.013
  0
LINE
  8
0
 10
-19.044
 11
-18.638
 20
-139.013
 21
-139.29
  0
LINE
  8
0
 10
-18.638
 11
-18.331
 20
-139.29
 21
-139.675
  0
LINE
  8
0
 10
-18.331
 11
-18.151
 20
-139.675
 21
-140.133
  0
LINE
  8
0
 10
-18.151
 11
-18.115
 20
-140.133
 21
-140.623
  0
LINE
  8
0
 10
-18.115
 11
-18.224
 20
-140.623
 21
-141.103
  0
LINE
  8
0
 10
-18.224
 11
-18.47
 20
-141.103
 21
-141.529
  0
LINE
  8
0
 10
-18.47
 11
-18.831
 20
-141.529
 21
-141.863
  0
LINE
  8
0
 10
-18.831
 11
-19.274
 20
-141.863
 21
-142.077
  0
LINE
  8
0
 10
-19.274
 11
-19.76
 20
-142.077
 21
-142.15
  0
LINE
  8
0
 10
-19.76
 11
-20.246
 20
-142.15
 21
-142.077
  0
LINE
  8
0
 10
-20.246
 11
-20.689
 20
-142.077
 21
-141.863
  0
LINE
  8
0
 10
-20.689
 11
-21.05
 20
-141.863
 21
-141.529
  0
LINE
  8
0
 10
-21.05
 11
-21.296
 20
-141.529
 21
-141.103
  0
LINE
  8
0
 10
-21.296
 11
-21.405
 20
-141.103
 21
-140.623
  0
LINE
  8
0
 10
8.595
 11
8.631
 20
-203.623
 21
-203.133
  0
LINE
  8
0
 10
8.631
 11
8.811
 20
-203.133
 21
-202.675
  0
LINE
  8
0
 10
8.811
 11
9.118
 20
-202.675
 21
-202.29
  0
LINE
  8
0
 10
9.118
 11
9.524
 20
-202.29
 21
-202.013
  0
LINE
  8
0
 10
9.524
 11
9.994
 20
-202.013
 21
-201.868
  0
LINE
  8
0
 10
9.994
 11
10.486
 20
-201.868
 21
-201.868
  0
LINE
  8
0
 10
10.486
 11
10.956
 20
-201.868
 21
-202.013
  0
LINE
  8
0
 10
10.956
 11
11.362
 20
-202.013
 21
-202.29
  0
LINE
  8
0
 10
11.362
 11
11.669
 20
-202.29
 21
-202.675
  0
LINE
  8
0
 10
11.669
 11
11.849
 20
-202.675
 21
-203.133
  0
LINE
  8
0
 10
11.849
 11
11.885
 20
-203.133
 21
-203.623
  0
LINE
  8
0
 10
11.885
 11
11.776
 20
-203.623
 21
-204.103
  0
LINE
  8
0
 10
11.776
 11
11.53
 20
-204.103
 21
-204.529
  0
LINE
  8
0
 10
11.53
 11
11.169
 20
-204.529
 21
-204.863
  0
LINE
  8
0
 10
11.169
 11
10.726
 20
-204.863
 21
-205.077
  0
LINE
  8
0
 10
10.726
 11
10.24
 20
-205.077
 21
-205.15
  0
LINE
  8
0
 10
10.24
 11
9.754
 20
-205.15
 21
-205.077
  0
LINE
  8
0
 10
9.754
 11
9.311
 20
-205.077
 21
-204.863
  0
LINE
  8
0
 10
9.311
 11
8.95
 20
-204.863
 21
-204.529
  0
LINE
  8
0
 10
8.95
 11
8.704
 20
-204.529
 21
-204.103
  0
LINE
  8
0
 10
8.704
 11
8.595
 20
-204.103
 21
-203.623
  0
LINE
  8
0
 10
8.595
 11
8.631
 20
-140.623
 21
-140.133
  0
LINE
  8
0
 10
8.631
 11
8.811
 20
-140.133
 21
-139.675
  0
LINE
  8
0
 10
8.811
 11
9.118
 20
-139.675
 21
-139.29
  0
LINE
  8
0
 10
9.118
 11
9.524
 20
-139.29
 21
-139.013
  0
LINE
  8
0
 10
9.524
 11
9.994
 20
-139.013
 21
-138.868
  0
LINE
  8
0
 10
9.994
 11
10.486
 20
-138.868
 21
-138.868
  0
LINE
  8
0
 10
10.486
 11
10.956
 20
-138.868
 21
-139.013
  0
LINE
  8
0
 10
10.956
 11
11.362
 20
-139.013
 21
-139.29
  0
LINE
  8
0
 10
11.362
 11
11.669
 20
-139.29
 21
-139.675
  0
LINE
  8
0
 10
11.669
 11
11.849
 20
-139.675
 21
-140.133
  0
LINE
  8
0
 10
11.849
 11
11.885
 20
-140.133
 21
-140.623
  0
LINE
  8
0
 10
11.885
 11
11.776
 20
-140.623
 21
-141.103
  0
LINE
  8
0
 10
11.776
 11
11.53
 20
-141.103
 21
-141.529
  0
LINE
  8
0
 10
11.53
 11
11.169
 20
-141.529
 21
-141.863
  0
LINE
  8
0
 10
11.169
 11
10.726
 20
-141.863
 21
-142.077
  0
LINE
  8
0
 10
10.726
 11
10.24
 20
-142.077
 21
-142.15
  0
LINE
  8
0
 10
10.24
 11
9.754
 20
-142.15
 21
-142.077
  0
LINE
  8
0
 10
9.754
 11
9.311
 20
-142.077
 21
-141.863
  0
LINE
  8
0
 10
9.311
 11
8.95
 20
-141.863
 21
-141.529
  0
LINE
  8
0
 10
8.95
 11
8.704
 20
-141.529
 21
-141.103
  0
LINE
  8
0
 10
8.704
 11
8.595
 20
-141.103
 21
-140.623
  0
LINE
  8
0
 10
12.828
 11
12.828
 20
98.254
 21
98.746
  0
LINE
  8
0
 10
12.828
 11
12.973
 20
98.746
 21
99.216
  0
LINE
  8
0
 10
12.973
 11
13.25
 20
99.216
 21
99.622
  0
LINE
  8
0
 10
13.25
 11
13.635
 20
99.622
 21
99.929
  0
LINE
  8
0
 10
13.635
 11
14.093
 20
99.929
 21
100.109
  0
LINE
  8
0
 10
14.093
 11
14.583
 20
100.109
 21
100.145
  0
LINE
  8
0
 10
14.583
 11
15.063
 20
100.145
 21
100.036
  0
LINE
  8
0
 10
15.063
 11
15.489
 20
100.036
 21
99.79
  0
LINE
  8
0
 10
15.489
 11
15.823
 20
99.79
 21
99.429
  0
LINE
  8
0
 10
15.823
 11
16.037
 20
99.429
 21
98.986
  0
LINE
  8
0
 10
16.037
 11
16.11
 20
98.986
 21
98.5
  0
LINE
  8
0
 10
16.11
 11
16.037
 20
98.5
 21
98.014
  0
LINE
  8
0
 10
16.037
 11
15.823
 20
98.014
 21
97.571
  0
LINE
  8
0
 10
15.823
 11
15.489
 20
97.571
 21
97.21
  0
LINE
  8
0
 10
15.489
 11
15.063
 20
97.21
 21
96.964
  0
LINE
  8
0
 10
15.063
 11
14.583
 20
96.964
 21
96.855
  0
LINE
  8
0
 10
14.583
 11
14.093
 20
96.855
 21
96.891
  0
LINE
  8
0
 10
14.093
 11
13.635
 20
96.891
 21
97.071
  0
LINE
  8
0
 10
13.635
 11
13.25
 20
97.071
 21
97.378
  0
LINE
  8
0
 10
13.25
 11
12.973
 20
97.378
 21
97.784
  0
LINE
  8
0
 10
12.973
 11
12.828
 20
97.784
 21
98.254
  0
LINE
  8
0
 10
18.355
 11
18.391
 20
139.877
 21
140.367
  0
LINE
  8
0
 10
18.391
 11
18.571
 20
140.367
 21
140.825
  0
LINE
  8
0
 10
18.571
 11
18.878
 20
140.825
 21
141.21
  0
LINE
  8
0
 10
18.878
 11
19.284
 20
141.21
 21
141.487
  0
LINE
  8
0
 10
19.284
 11
19.754
 20
141.487
 21
141.632
  0
LINE
  8
0
 10
19.754
 11
20.246
 20
141.632
 21
141.632
  0
LINE
  8
0
 10
20.246
 11
20.716
 20
141.632
 21
141.487
  0
LINE
  8
0
 10
20.716
 11
21.122
 20
141.487
 21
141.21
  0
LINE
  8
0
 10
21.122
 11
21.429
 20
141.21
 21
140.825
  0
LINE
  8
0
 10
21.429
 11
21.609
 20
140.825
 21
140.367
  0
LINE
  8
0
 10
21.609
 11
21.645
 20
140.367
 21
139.877
  0
LINE
  8
0
 10
21.645
 11
21.536
 20
139.877
 21
139.397
  0
LINE
  8
0
 10
21.536
 11
21.29
 20
139.397
 21
138.971
  0
LINE
  8
0
 10
21.29
 11
20.929
 20
138.971
 21
138.637
  0
LINE
  8
0
 10
20.929
 11
20.486
 20
138.637
 21
138.423
  0
LINE
  8
0
 10
20.486
 11
20
 20
138.423
 21
138.35
  0
LINE
  8
0
 10
20
 11
19.514
 20
138.35
 21
138.423
  0
LINE
  8
0
 10
19.514
 11
19.071
 20
138.423
 21
138.637
  0
LINE
  8
0
 10
19.071
 11
18.71
 20
138.637
 21
138.971
  0
LINE
  8
0
 10
18.71
 11
18.464
 20
138.971
 21
139.397
  0
LINE
  8
0
 10
18.464
 11
18.355
 20
139.397
 21
139.877
  0
LINE
  8
0
 10
59.105
 11
59.141
 20
-134.123
 21
-133.633
  0
LINE
  8
0
 10
59.141
 11
59.321
 20
-133.633
 21
-133.175
  0
LINE
  8
0
 10
59.321
 11
59.628
 20
-133.175
 21
-132.79
  0
LINE
  8
0
 10
59.628
 11
60.034
 20
-132.79
 21
-132.513
  0
LINE
  8
0
 10
60.034
 11
60.504
 20
-132.513
 21
-132.368
  0
LINE
  8
0
 10
60.504
 11
60.996
 20
-132.368
 21
-132.368
  0
LINE
  8
0
 10
60.996
 11
61.466
 20
-132.368
 21
-132.513
  0
LINE
  8
0
 10
61.466
 11
61.872
 20
-132.513
 21
-132.79
  0
LINE
  8
0
 10
61.872
 11
62.179
 20
-132.79
 21
-133.175
  0
LINE
  8
0
 10
62.179
 11
62.359
 20
-133.175
 21
-133.633
  0
LINE
  8
0
 10
62.359
 11
62.395
 20
-133.633
 21
-134.123
  0
LINE
  8
0
 10
62.395
 11
62.286
 20
-134.123
 21
-134.603
  0
LINE
  8
0
 10
62.286
 11
62.04
 20
-134.603
 21
-135.029
  0
LINE
  8
0
 10
62.04
 11
61.679
 20
-135.029
 21
-135.363
  0
LINE
  8
0
 10
61.679
 11
61.236
 20
-135.363
 21
-135.577
  0
LINE
  8
0
 10
61.236
 11
60.75
 20
-135.577
 21
-135.65
  0
LINE
  8
0
 10
60.75
 11
60.264
 20
-135.65
 21
-135.577
  0
LINE
  8
0
 10
60.264
 11
59.821
 20
-135.577
 21
-135.363
  0
LINE
  8
0
 10
59.821
 11
59.46
 20
-135.363
 21
-135.029
  0
LINE
  8
0
 10
59.46
 11
59.214
 20
-135.029
 21
-134.603
  0
LINE
  8
0
 10
59.214
 11
59.105
 20
-134.603
 21
-134.123
  0
LINE
  8
0
 10
59.105
 11
59.141
 20
123.877
 21
124.367
  0
LINE
  8
0
 10
59.141
 11
59.321
 20
124.367
 21
124.825
  0
LINE
  8
0
 10
59.321
 11
59.628
 20
124.825
 21
125.21
  0
LINE
  8
0
 10
59.628
 11
60.034
 20
125.21
 21
125.487
  0
LINE
  8
0
 10
60.034
 11
60.504
 20
125.487
 21
125.632
  0
LINE
  8
0
 10
60.504
 11
60.996
 20
125.632
 21
125.632
  0
LINE
  8
0
 10
60.996
 11
61.466
 20
125.632
 21
125.487
  0
LINE
  8
0
 10
61.466
 11
61.872
 20
125.487
 21
125.21
  0
LINE
  8
0
 10
61.872
 11
62.179
 20
125.21
 21
124.825
  0
LINE
  8
0
 10
62.179
 11
62.359
 20
124.825
 21
124.367
  0
LINE
  8
0
 10
62.359
 11
62.395
 20
124.367
 21
123.877
  0
LINE
  8
0
 10
62.395
 11
62.286
 20
123.877
 21
123.397
  0
LINE
  8
0
 10
62.286
 11
62.04
 20
123.397
 21
122.971
  0
LINE
  8
0
 10
62.04
 11
61.679
 20
122.971
 21
122.637
  0
LINE
  8
0
 10
61.679
 11
61.236
 20
122.637
 21
122.423
  0
LINE
  8
0
 10
61.236
 11
60.75
 20
122.423
 21
122.35
  0
LINE
  8
0
 10
60.75
 11
60.264
 20
122.35
 21
122.423
  0
LINE
  8
0
 10
60.264
 11
59.821
 20
122.423
 21
122.637
  0
LINE
  8
0
 10
59.821
 11
59.46
 20
122.637
 21
122.971
  0
LINE
  8
0
 10
59.46
 11
59.214
 20
122.971
 21
123.397
  0
LINE
  8
0
 10
59.214
 11
59.105
 20
123.397
 21
123.877
  0
LINE
  8
0
 10
92.105
 11
92.141
 20
-134.123
 21
-133.633
  0
LINE
  8
0
 10
92.141
 11
92.321
 20
-133.633
 21
-133.175
  0
LINE
  8
0
 10
92.321
 11
92.628
 20
-133.175
 21
-132.79
  0
LINE
  8
0
 10
92.628
 11
93.034
 20
-132.79
 21
-132.513
  0
LINE
  8
0
 10
93.034
 11
93.504
 20
-132.513
 21
-132.368
  0
LINE
  8
0
 10
93.504
 11
93.996
 20
-132.368
 21
-132.368
  0
LINE
  8
0
 10
93.996
 11
94.466
 20
-132.368
 21
-132.513
  0
LINE
  8
0
 10
94.466
 11
94.872
 20
-132.513
 21
-132.79
  0
LINE
  8
0
 10
94.872
 11
95.179
 20
-132.79
 21
-133.175
  0
LINE
  8
0
 10
95.179
 11
95.359
 20
-133.175
 21
-133.633
  0
LINE
  8
0
 10
95.359
 11
95.395
 20
-133.633
 21
-134.123
  0
LINE
  8
0
 10
95.395
 11
95.286
 20
-134.123
 21
-134.603
  0
LINE
  8
0
 10
95.286
 11
95.04
 20
-134.603
 21
-135.029
  0
LINE
  8
0
 10
95.04
 11
94.679
 20
-135.029
 21
-135.363
  0
LINE
  8
0
 10
94.679
 11
94.236
 20
-135.363
 21
-135.577
  0
LINE
  8
0
 10
94.236
 11
93.75
 20
-135.577
 21
-135.65
  0
LINE
  8
0
 10
93.75
 11
93.264
 20
-135.65
 21
-135.577
  0
LINE
  8
0
 10
93.264
 11
92.821
 20
-135.577
 21
-135.363
  0
LINE
  8
0
 10
92.821
 11
92.46
 20
-135.363
 21
-135.029
  0
LINE
  8
0
 10
92.46
 11
92.214
 20
-135.029
 21
-134.603
  0
LINE
  8
0
 10
92.214
 11
92.105
 20
-134.603
 21
-134.123
  0
LINE
  8
0
 10
92.105
 11
92.141
 20
123.877
 21
124.367
  0
LINE
  8
0
 10
92.141
 11
92.321
 20
124.367
 21
124.825
  0
LINE
  8
0
 10
92.321
 11
92.628
 20
124.825
 21
125.21
  0
LINE
  8
0
 10
92.628
 11
93.034
 20
125.21
 21
125.487
  0
LINE
  8
0
 10
93.034
 11
93.504
 20
125.487
 21
125.632
  0
LINE
  8
0
 10
93.504
 11
93.996
 20
125.632
 21
125.632
  0
LINE
  8
0
 10
93.996
 11
94.466
 20
125.632
 21
125.487
  0
LINE
  8
0
 10
94.466
 11
94.872
 20
125.487
 21
125.21
  0
LINE
  8
0
 10
94.872
 11
95.179
 20
125.21
 21
124.825
  0
LINE
  8
0
 10
95.179
 11
95.359
 20
124.825
 21
124.367
  0
LINE
  8
0
 10
95.359
 11
95.395
 20
124.367
 21
123.877
  0
LINE
  8
0
 10
95.395
 11
95.286
 20
123.877
 21
123.397
  0
LINE
  8
0
 10
95.286
 11
95.04
 20
123.397
 21
122.971
  0
LINE
  8
0
 10
95.04
 11
94.679
 20
122.971
 21
122.637
  0
LINE
  8
0
 10
94.679
 11
94.236
 20
122.637
 21
122.423
  0
LINE
  8
0
 10
94.236
 11
93.75
 20
122.423
 21
122.35
  0
LINE
  8
0
 10
93.75
 11
93.264
 20
122.35
 21
122.423
  0
LINE
  8
0
 10
93.264
 11
92.821
 20
122.423
 21
122.637
  0
LINE
  8
0
 10
92.821
 11
92.46
 20
122.637
 21
122.971
  0
LINE
  8
0
 10
92.46
 11
92.214
 20
122.971
 21
123.397
  0
LINE
  8
0
 10
92.214
 11
92.105
 20
123.397
 21
123.877
  0
LINE
  8
0
 10
107.618
 11
107.618
 20
-115.746
 21
-115.254
  0
LINE
  8
0
 10
107.618
 11
107.763
 20
-115.254
 21
-114.784
  0
LINE
  8
0
 10
107.763
 11
108.04
 20
-114.784
 21
-114.378
  0
LINE
  8
0
 10
108.04
 11
108.425
 20
-114.378
 21
-114.071
  0
LINE
  8
0
 10
108.425
 11
108.883
 20
-114.071
 21
-113.891
  0
LINE
  8
0
 10
108.883
 11
109.373
 20
-113.891
 21
-113.855
  0
LINE
  8
0
 10
109.373
 11
109.853
 20
-113.855
 21
-113.964
  0
LINE
  8
0
 10
109.853
 11
110.279
 20
-113.964
 21
-114.21
  0
LINE
  8
0
 10
110.279
 11
110.613
 20
-114.21
 21
-114.571
  0
LINE
  8
0
 10
110.613
 11
110.827
 20
-114.571
 21
-115.014
  0
LINE
  8
0
 10
110.827
 11
110.9
 20
-115.014
 21
-115.5
  0
LINE
  8
0
 10
110.9
 11
110.827
 20
-115.5
 21
-115.986
  0
LINE
  8
0
 10
110.827
 11
110.613
 20
-115.986
 21
-116.429
  0
LINE
  8
0
 10
110.613
 11
110.279
 20
-116.429
 21
-116.79
  0
LINE
  8
0
 10
110.279
 11
109.853
 20
-116.79
 21
-117.036
  0
LINE
  8
0
 10
109.853
 11
109.373
 20
-117.036
 21
-117.145
  0
LINE
  8
0
 10
109.373
 11
108.883
 20
-117.145
 21
-117.109
  0
LINE
  8
0
 10
108.883
 11
108.425
 20
-117.109
 21
-116.929
  0
LINE
  8
0
 10
108.425
 11
108.04
 20
-116.929
 21
-116.622
  0
LINE
  8
0
 10
108.04
 11
107.763
 20
-116.622
 21
-116.216
  0
LINE
  8
0
 10
107.763
 11
107.618
 20
-116.216
 21
-115.746
  0
LINE
  8
0
 10
107.618
 11
107.618
 20
57.654
 21
58.146
  0
LINE
  8
0
 10
107.618
 11
107.763
 20
58.146
 21
58.616
  0
LINE
  8
0
 10
107.763
 11
108.04
 20
58.616
 21
59.022
  0
LINE
  8
0
 10
108.04
 11
108.425
 20
59.022
 21
59.329
  0
LINE
  8
0
 10
108.425
 11
108.883
 20
59.329
 21
59.509
  0
LINE
  8
0
 10
108.883
 11
109.373
 20
59.509
 21
59.545
  0
LINE
  8
0
 10
109.373
 11
109.853
 20
59.545
 21
59.436
  0
LINE
  8
0
 10
109.853
 11
110.279
 20
59.436
 21
59.19
  0
LINE
  8
0
 10
110.279
 11
110.613
 20
59.19
 21
58.829
  0
LINE
  8
0
 10
110.613
 11
110.827
 20
58.829
 21
58.386
  0
LINE
  8
0
 10
110.827
 11
110.9
 20
58.386
 21
57.9
  0
LINE
  8
0
 10
110.9
 11
110.827
 20
57.9
 21
57.414
  0
LINE
  8
0
 10
110.827
 11
110.613
 20
57.414
 21
56.971
  0
LINE
  8
0
 10
110.613
 11
110.279
 20
56.971
 21
56.61
  0
LINE
  8
0
 10
110.279
 11
109.853
 20
56.61
 21
56.364
  0
LINE
  8
0
 10
109.853
 11
109.373
 20
56.364
 21
56.255
  0
LINE
  8
0
 10
109.373
 11
108.883
 20
56.255
 21
56.291
  0
LINE
  8
0
 10
108.883
 11
108.425
 20
56.291
 21
56.471
  0
LINE
  8
0
 10
108.425
 11
108.04
 20
56.471
 21
56.778
  0
LINE
  8
0
 10
108.04
 11
107.763
 20
56.778
 21
57.184
  0
LINE
  8
0
 10
107.763
 11
107.618
 20
57.184
 21
57.654
  0
LINE
  8
0
 10
126.805
 11
126.914
 20
190.813
 21
191.293
  0
LINE
  8
0
 10
126.914
 11
127.16
 20
191.293
 21
191.719
  0
LINE
  8
0
 10
127.16
 11
127.521
 20
191.719
 21
192.053
  0
LINE
  8
0
 10
127.521
 11
127.964
 20
192.053
 21
192.267
  0
LINE
  8
0
 10
127.964
 11
128.45
 20
192.267
 21
192.34
  0
LINE
  8
0
 10
128.45
 11
128.936
 20
192.34
 21
192.267
  0
LINE
  8
0
 10
128.936
 11
129.379
 20
192.267
 21
192.053
  0
LINE
  8
0
 10
129.379
 11
129.74
 20
192.053
 21
191.719
  0
LINE
  8
0
 10
129.74
 11
129.986
 20
191.719
 21
191.293
  0
LINE
  8
0
 10
129.986
 11
130.095
 20
191.293
 21
190.813
  0
LINE
  8
0
 10
130.095
 11
130.059
 20
190.813
 21
190.323
  0
LINE
  8
0
 10
130.059
 11
129.879
 20
190.323
 21
189.865
  0
LINE
  8
0
 10
129.879
 11
129.572
 20
189.865
 21
189.48
  0
LINE
  8
0
 10
129.572
 11
129.166
 20
189.48
 21
189.203
  0
LINE
  8
0
 10
129.166
 11
128.696
 20
189.203
 21
189.058
  0
LINE
  8
0
 10
128.696
 11
128.204
 20
189.058
 21
189.058
  0
LINE
  8
0
 10
128.204
 11
127.734
 20
189.058
 21
189.203
  0
LINE
  8
0
 10
127.734
 11
127.328
 20
189.203
 21
189.48
  0
LINE
  8
0
 10
127.328
 11
127.021
 20
189.48
 21
189.865
  0
LINE
  8
0
 10
127.021
 11
126.841
 20
189.865
 21
190.323
  0
LINE
  8
0
 10
126.841
 11
126.805
 20
190.323
 21
190.813
  0
LINE
  8
0
 10
154.258
 11
154.258
 20
-0.246
 21
0.246
  0
LINE
  8
0
 10
154.258
 11
154.318
 20
0.246
 21
0.735
  0
LINE
  8
0
 10
154.318
 11
154.438
 20
0.735
 21
1.213
  0
LINE
  8
0
 10
154.438
 11
154.616
 20
1.213
 21
1.672
  0
LINE
  8
0
 10
154.616
 11
154.849
 20
1.672
 21
2.106
  0
LINE
  8
0
 10
154.849
 11
155.134
 20
2.106
 21
2.508
  0
LINE
  8
0
 10
155.134
 11
155.465
 20
2.508
 21
2.872
  0
LINE
  8
0
 10
155.465
 11
155.839
 20
2.872
 21
3.192
  0
LINE
  8
0
 10
155.839
 11
156.25
 20
3.192
 21
3.464
  0
LINE
  8
0
 10
156.25
 11
156.691
 20
3.464
 21
3.684
  0
LINE
  8
0
 10
156.691
 11
157.155
 20
3.684
 21
3.847
  0
LINE
  8
0
 10
157.155
 11
157.636
 20
3.847
 21
3.953
  0
LINE
  8
0
 10
157.636
 11
158.127
 20
3.953
 21
3.998
  0
LINE
  8
0
 10
158.127
 11
158.619
 20
3.998
 21
3.983
  0
LINE
  8
0
 10
158.619
 11
159.106
 20
3.983
 21
3.907
  0
LINE
  8
0
 10
159.106
 11
159.579
 20
3.907
 21
3.773
  0
LINE
  8
0
 10
159.579
 11
160.033
 20
3.773
 21
3.581
  0
LINE
  8
0
 10
160.033
 11
160.459
 20
3.581
 21
3.334
  0
LINE
  8
0
 10
160.459
 11
160.852
 20
3.334
 21
3.038
  0
LINE
  8
0
 10
160.852
 11
161.206
 20
3.038
 21
2.695
  0
LINE
  8
0
 10
161.206
 11
161.515
 20
2.695
 21
2.311
  0
LINE
  8
0
 10
161.515
 11
161.774
 20
2.311
 21
1.892
  0
LINE
  8
0
 10
161.774
 11
161.98
 20
1.892
 21
1.445
  0
LINE
  8
0
 10
161.98
 11
162.129
 20
1.445
 21
0.976
  0
LINE
  8
0
 10
162.129
 11
162.22
 20
0.976
 21
0.492
  0
LINE
  8
0
 10
162.22
 11
162.25
 20
0.492
 21
0
  0
LINE
  8
0
 10
162.25
 11
162.22
 20
0
 21
-0.492
  0
LINE
  8
0
 10
162.22
 11
162.129
 20
-0.492
 21
-0.976
  0
LINE
  8
0
 10
162.129
 11
161.98
 20
-0.976
 21
-1.445
  0
LINE
  8
0
 10
161.98
 11
161.774
 20
-1.445
 21
-1.892
  0
LINE
  8
0
 10
161.774
 11
161.515
 20
-1.892
 21
-2.311
  0
LINE
  8
0
 10
161.515
 11
161.206
 20
-2.311
 21
-2.695
  0
LINE
  8
0
 10
161.206
 11
160.852
 20
-2.695
 21
-3.038
  0
LINE
  8
0
 10
160.852
 11
160.459
 20
-3.038
 21
-3.334
  0
LINE
  8
0
 10
160.459
 11
160.033
 20
-3.334
 21
-3.581
  0
LINE
  8
0
 10
160.033
 11
159.579
 20
-3.581
 21
-3.773
  0
LINE
  8
0
 10
159.579
 11
159.106
 20
-3.773
 21
-3.907
  0
LINE
  8
0
 10
159.106
 11
158.619
 20
-3.907
 21
-3.983
  0
LINE
  8
0
 10
158.619
 11
158.127
 20
-3.983
 21
-3.998
  0
LINE
  8
0
 10
158.127
 11
157.636
 20
-3.998
 21
-3.953
  0
LINE
  8
0
 10
157.636
 11
157.155
 20
-3.953
 21
-3.847
  0
LINE
  8
0
 10
157.155
 11
156.691
 20
-3.847
 21
-3.684
  0
LINE
  8
0
 10
156.691
 11
156.25
 20
-3.684
 21
-3.464
  0
LINE
  8
0
 10
156.25
 11
155.839
 20
-3.464
 21
-3.192
  0
LINE
  8
0
 10
155.839
 11
155.465
 20
-3.192
 21
-2.872
  0
LINE
  8
0
 10
155.465
 11
155.134
 20
-2.872
 21
-2.508
  0
LINE
  8
0
 10
155.134
 11
154.849
 20
-2.508
 21
-2.106
  0
LINE
  8
0
 10
154.849
 11
154.616
 20
-2.106
 21
-1.672
  0
LINE
  8
0
 10
154.616
 11
154.438
 20
-1.672
 21
-1.213
  0
LINE
  8
0
 10
154.438
 11
154.318
 20
-1.213
 21
-0.735
  0
LINE
  8
0
 10
154.318
 11
154.258
 20
-0.735
 21
-0.246
  0
LINE
  8
0
 10
161.328
 11
161.328
 20
54.454
 21
54.946
  0
LINE
  8
0
 10
161.328
 11
161.473
 20
54.946
 21
55.416
  0
LINE
  8
0
 10
161.473
 11
161.75
 20
55.416
 21
55.822
  0
LINE
  8
0
 10
161.75
 11
162.135
 20
55.822
 21
56.129
  0
LINE
  8
0
 10
162.135
 11
162.593
 20
56.129
 21
56.309
  0
LINE
  8
0
 10
162.593
 11
163.083
 20
56.309
 21
56.345
  0
LINE
  8
0
 10
163.083
 11
163.563
 20
56.345
 21
56.236
  0
LINE
  8
0
 10
163.563
 11
163.989
 20
56.236
 21
55.99
  0
LINE
  8
0
 10
163.989
 11
164.323
 20
55.99
 21
55.629
  0
LINE
  8
0
 10
164.323
 11
164.537
 20
55.629
 21
55.186
  0
LINE
  8
0
 10
164.537
 11
164.61
 20
55.186
 21
54.7
  0
LINE
  8
0
 10
164.61
 11
164.537
 20
54.7
 21
54.214
  0
LINE
  8
0
 10
164.537
 11
164.323
 20
54.214
 21
53.771
  0
LINE
  8
0
 10
164.323
 11
163.989
 20
53.771
 21
53.41
  0
LINE
  8
0
 10
163.989
 11
163.563
 20
53.41
 21
53.164
  0
LINE
  8
0
 10
163.563
 11
163.083
 20
53.164
 21
53.055
  0
LINE
  8
0
 10
163.083
 11
162.593
 20
53.055
 21
53.091
  0
LINE
  8
0
 10
162.593
 11
162.135
 20
53.091
 21
53.271
  0
LINE
  8
0
 10
162.135
 11
161.75
 20
53.271
 21
53.578
  0
LINE
  8
0
 10
161.75
 11
161.473
 20
53.578
 21
53.984
  0
LINE
  8
0
 10
161.473
 11
161.328
 20
53.984
 21
54.454
  0
LINE
  8
0
 10
213.308
 11
213.308
 20
54.454
 21
54.946
  0
LINE
  8
0
 10
213.308
 11
213.453
 20
54.946
 21
55.416
  0
LINE
  8
0
 10
213.453
 11
213.73
 20
55.416
 21
55.822
  0
LINE
  8
0
 10
213.73
 11
214.115
 20
55.822
 21
56.129
  0
LINE
  8
0
 10
214.115
 11
214.573
 20
56.129
 21
56.309
  0
LINE
  8
0
 10
214.573
 11
215.063
 20
56.309
 21
56.345
  0
LINE
  8
0
 10
215.063
 11
215.543
 20
56.345
 21
56.236
  0
LINE
  8
0
 10
215.543
 11
215.969
 20
56.236
 21
55.99
  0
LINE
  8
0
 10
215.969
 11
216.303
 20
55.99
 21
55.629
  0
LINE
  8
0
 10
216.303
 11
216.517
 20
55.629
 21
55.186
  0
LINE
  8
0
 10
216.517
 11
216.59
 20
55.186
 21
54.7
  0
LINE
  8
0
 10
216.59
 11
216.517
 20
54.7
 21
54.214
  0
LINE
  8
0
 10
216.517
 11
216.303
 20
54.214
 21
53.771
  0
LINE
  8
0
 10
216.303
 11
215.969
 20
53.771
 21
53.41
  0
LINE
  8
0
 10
215.969
 11
215.543
 20
53.41
 21
53.164
  0
LINE
  8
0
 10
215.543
 11
215.063
 20
53.164
 21
53.055
  0
LINE
  8
0
 10
215.063
 11
214.573
 20
53.055
 21
53.091
  0
LINE
  8
0
 10
214.573
 11
214.115
 20
53.091
 21
53.271
  0
LINE
  8
0
 10
214.115
 11
213.73
 20
53.271
 21
53.578
  0
LINE
  8
0
 10
213.73
 11
213.453
 20
53.578
 21
53.984
  0
LINE
  8
0
 10
213.453
 11
213.308
 20
53.984
 21
54.454
  0
LINE
  8
0
 10
222.905
 11
222.941
 20
73.777
 21
74.267
  0
LINE
  8
0
 10
222.941
 11
223.121
 20
74.267
 21
74.725
  0
LINE
  8
0
 10
223.121
 11
223.428
 20
74.725
 21
75.11
  0
LINE
  8
0
 10
223.428
 11
223.834
 20
75.11
 21
75.387
  0
LINE
  8
0
 10
223.834
 11
224.304
 20
75.387
 21
75.532
  0
LINE
  8
0
 10
224.304
 11
224.796
 20
75.532
 21
75.532
  0
LINE
  8
0
 10
224.796
 11
225.266
 20
75.532
 21
75.387
  0
LINE
  8
0
 10
225.266
 11
225.672
 20
75.387
 21
75.11
  0
LINE
  8
0
 10
225.672
 11
225.979
 20
75.11
 21
74.725
  0
LINE
  8
0
 10
225.979
 11
226.159
 20
74.725
 21
74.267
  0
LINE
  8
0
 10
226.159
 11
226.195
 20
74.267
 21
73.777
  0
LINE
  8
0
 10
226.195
 11
226.086
 20
73.777
 21
73.297
  0
LINE
  8
0
 10
226.086
 11
225.84
 20
73.297
 21
72.871
  0
LINE
  8
0
 10
225.84
 11
225.479
 20
72.871
 21
72.537
  0
LINE
  8
0
 10
225.479
 11
225.036
 20
72.537
 21
72.323
  0
LINE
  8
0
 10
225.036
 11
224.55
 20
72.323
 21
72.25
  0
LINE
  8
0
 10
224.55
 11
224.064
 20
72.25
 21
72.323
  0
LINE
  8
0
 10
224.064
 11
223.621
 20
72.323
 21
72.537
  0
LINE
  8
0
 10
223.621
 11
223.26
 20
72.537
 21
72.871
  0
LINE
  8
0
 10
223.26
 11
223.014
 20
72.871
 21
73.297
  0
LINE
  8
0
 10
223.014
 11
222.905
 20
73.297
 21
73.777
  0
ENDSEC
  0
SECTION
  2
OBJECTS
  0
DICTIONARY
  0
ENDSEC
  0
EOF
