  0
SECTION
  2
BLOCKS
  0
ENDSEC
  0
SECTION
  2
ENTITIES
  0
LINE
  8
0
 10
-235.25
 11
-235.25
 20
0
 21
364
  0
LINE
  8
0
 10
-235.25
 11
-235.155
 20
364
 21
366.179
  0
LINE
  8
0
 10
-235.155
 11
-234.87
 20
366.179
 21
368.341
  0
LINE
  8
0
 10
-234.87
 11
-234.398
 20
368.341
 21
370.47
  0
LINE
  8
0
 10
-234.398
 11
-233.742
 20
370.47
 21
372.551
  0
LINE
  8
0
 10
-233.742
 11
-232.908
 20
372.551
 21
374.565
  0
LINE
  8
0
 10
-232.908
 11
-231.901
 20
374.565
 21
376.5
  0
LINE
  8
0
 10
-231.901
 11
-230.729
 20
376.5
 21
378.339
  0
LINE
  8
0
 10
-230.729
 11
-229.401
 20
378.339
 21
380.07
  0
LINE
  8
0
 10
-229.401
 11
-227.928
 20
380.07
 21
381.678
  0
LINE
  8
0
 10
-227.928
 11
-226.32
 20
381.678
 21
383.151
  0
LINE
  8
0
 10
-226.32
 11
-224.589
 20
383.151
 21
384.479
  0
LINE
  8
0
 10
-224.589
 11
-222.75
 20
384.479
 21
385.651
  0
LINE
  8
0
 10
-222.75
 11
-220.815
 20
385.651
 21
386.658
  0
LINE
  8
0
 10
-220.815
 11
-218.801
 20
386.658
 21
387.492
  0
LINE
  8
0
 10
-218.801
 11
-216.72
 20
387.492
 21
388.148
  0
LINE
  8
0
 10
-216.72
 11
-214.591
 20
388.148
 21
388.62
  0
LINE
  8
0
 10
-214.591
 11
-212.429
 20
388.62
 21
388.905
  0
LINE
  8
0
 10
-212.429
 11
-210.25
 20
388.905
 21
389
  0
LINE
  8
0
 10
-210.25
 11
210.25
 20
389
 21
389
  0
LINE
  8
0
 10
210.25
 11
212.429
 20
389
 21
388.905
  0
LINE
  8
0
 10
212.429
 11
214.591
 20
388.905
 21
388.62
  0
LINE
  8
0
 10
214.591
 11
216.72
 20
388.62
 21
388.148
  0
LINE
  8
0
 10
216.72
 11
218.801
 20
388.148
 21
387.492
  0
LINE
  8
0
 10
218.801
 11
220.815
 20
387.492
 21
386.658
  0
LINE
  8
0
 10
220.815
 11
222.75
 20
386.658
 21
385.651
  0
LINE
  8
0
 10
222.75
 11
224.589
 20
385.651
 21
384.479
  0
LINE
  8
0
 10
224.589
 11
226.32
 20
384.479
 21
383.151
  0
LINE
  8
0
 10
226.32
 11
227.928
 20
383.151
 21
381.678
  0
LINE
  8
0
 10
227.928
 11
229.401
 20
381.678
 21
380.07
  0
LINE
  8
0
 10
229.401
 11
230.729
 20
380.07
 21
378.339
  0
LINE
  8
0
 10
230.729
 11
231.901
 20
378.339
 21
376.5
  0
LINE
  8
0
 10
231.901
 11
232.908
 20
376.5
 21
374.565
  0
LINE
  8
0
 10
232.908
 11
233.742
 20
374.565
 21
372.551
  0
LINE
  8
0
 10
233.742
 11
234.398
 20
372.551
 21
370.47
  0
LINE
  8
0
 10
234.398
 11
234.87
 20
370.47
 21
368.341
  0
LINE
  8
0
 10
234.87
 11
235.155
 20
368.341
 21
366.179
  0
LINE
  8
0
 10
235.155
 11
235.25
 20
366.179
 21
364
  0
LINE
  8
0
 10
235.25
 11
235.25
 20
364
 21
0
  0
LINE
  8
0
 10
235.25
 11
118.25
 20
0
 21
0
  0
LINE
  8
0
 10
118.25
 11
118.25
 20
0
 21
281.1
  0
LINE
  8
0
 10
118.25
 11
118.225
 20
281.1
 21
281.598
  0
LINE
  8
0
 10
118.225
 11
118.151
 20
281.598
 21
282.091
  0
LINE
  8
0
 10
118.151
 11
118.028
 20
282.091
 21
282.574
  0
LINE
  8
0
 10
118.028
 11
117.857
 20
282.574
 21
283.042
  0
LINE
  8
0
 10
117.857
 11
117.641
 20
283.042
 21
283.491
  0
LINE
  8
0
 10
117.641
 11
117.381
 20
283.491
 21
283.917
  0
LINE
  8
0
 10
117.381
 11
117.08
 20
283.917
 21
284.314
  0
LINE
  8
0
 10
117.08
 11
116.741
 20
284.314
 21
284.679
  0
LINE
  8
0
 10
116.741
 11
116.367
 20
284.679
 21
285.009
  0
LINE
  8
0
 10
116.367
 11
115.963
 20
285.009
 21
285.3
  0
LINE
  8
0
 10
115.963
 11
115.531
 20
285.3
 21
285.549
  0
LINE
  8
0
 10
115.531
 11
115.077
 20
285.549
 21
285.754
  0
LINE
  8
0
 10
115.077
 11
114.604
 20
285.754
 21
285.913
  0
LINE
  8
0
 10
114.604
 11
114.118
 20
285.913
 21
286.024
  0
LINE
  8
0
 10
114.118
 11
113.624
 20
286.024
 21
286.086
  0
LINE
  8
0
 10
113.624
 11
113.25
 20
286.086
 21
286.095
  0
LINE
  8
0
 10
113.25
 11
113.25
 20
286.095
 21
286.1
  0
LINE
  8
0
 10
113.25
 11
-126.75
 20
286.1
 21
286.1
  0
LINE
  8
0
 10
-126.75
 11
-126.75
 20
286.1
 21
286.095
  0
LINE
  8
0
 10
-126.75
 11
-126.875
 20
286.095
 21
286.098
  0
LINE
  8
0
 10
-126.875
 11
-127.372
 20
286.098
 21
286.061
  0
LINE
  8
0
 10
-127.372
 11
-127.863
 20
286.061
 21
285.975
  0
LINE
  8
0
 10
-127.863
 11
-128.342
 20
285.975
 21
285.84
  0
LINE
  8
0
 10
-128.342
 11
-128.806
 20
285.84
 21
285.658
  0
LINE
  8
0
 10
-128.806
 11
-129.25
 20
285.658
 21
285.43
  0
LINE
  8
0
 10
-129.25
 11
-129.669
 20
285.43
 21
285.16
  0
LINE
  8
0
 10
-129.669
 11
-130.058
 20
285.16
 21
284.849
  0
LINE
  8
0
 10
-130.058
 11
-130.415
 20
284.849
 21
284.501
  0
LINE
  8
0
 10
-130.415
 11
-130.736
 20
284.501
 21
284.119
  0
LINE
  8
0
 10
-130.736
 11
-131.016
 20
284.119
 21
283.707
  0
LINE
  8
0
 10
-131.016
 11
-131.255
 20
283.707
 21
283.269
  0
LINE
  8
0
 10
-131.255
 11
-131.448
 20
283.269
 21
282.81
  0
LINE
  8
0
 10
-131.448
 11
-131.595
 20
282.81
 21
282.334
  0
LINE
  8
0
 10
-131.595
 11
-131.694
 20
282.334
 21
281.845
  0
LINE
  8
0
 10
-131.694
 11
-131.744
 20
281.845
 21
281.349
  0
LINE
  8
0
 10
-131.744
 11
-131.744
 20
281.349
 21
281.1
  0
LINE
  8
0
 10
-131.744
 11
-131.75
 20
281.1
 21
281.1
  0
LINE
  8
0
 10
-131.75
 11
-131.75
 20
281.1
 21
0
  0
LINE
  8
0
 10
-131.75
 11
-235.25
 20
0
 21
0
  0
LINE
  8
0
 10
-229.382
 11
-229.382
 20
112.854
 21
113.346
  0
LINE
  8
0
 10
-229.382
 11
-229.237
 20
113.346
 21
113.816
  0
LINE
  8
0
 10
-229.237
 11
-228.96
 20
113.816
 21
114.222
  0
LINE
  8
0
 10
-228.96
 11
-228.575
 20
114.222
 21
114.529
  0
LINE
  8
0
 10
-228.575
 11
-228.117
 20
114.529
 21
114.709
  0
LINE
  8
0
 10
-228.117
 11
-227.627
 20
114.709
 21
114.745
  0
LINE
  8
0
 10
-227.627
 11
-227.147
 20
114.745
 21
114.636
  0
LINE
  8
0
 10
-227.147
 11
-226.721
 20
114.636
 21
114.39
  0
LINE
  8
0
 10
-226.721
 11
-226.387
 20
114.39
 21
114.029
  0
LINE
  8
0
 10
-226.387
 11
-226.173
 20
114.029
 21
113.586
  0
LINE
  8
0
 10
-226.173
 11
-226.1
 20
113.586
 21
113.1
  0
LINE
  8
0
 10
-226.1
 11
-226.173
 20
113.1
 21
112.614
  0
LINE
  8
0
 10
-226.173
 11
-226.387
 20
112.614
 21
112.171
  0
LINE
  8
0
 10
-226.387
 11
-226.721
 20
112.171
 21
111.81
  0
LINE
  8
0
 10
-226.721
 11
-227.147
 20
111.81
 21
111.564
  0
LINE
  8
0
 10
-227.147
 11
-227.627
 20
111.564
 21
111.455
  0
LINE
  8
0
 10
-227.627
 11
-228.117
 20
111.455
 21
111.491
  0
LINE
  8
0
 10
-228.117
 11
-228.575
 20
111.491
 21
111.671
  0
LINE
  8
0
 10
-228.575
 11
-228.96
 20
111.671
 21
111.978
  0
LINE
  8
0
 10
-228.96
 11
-229.237
 20
111.978
 21
112.384
  0
LINE
  8
0
 10
-229.237
 11
-229.382
 20
112.384
 21
112.854
  0
LINE
  8
0
 10
-229.382
 11
-229.382
 20
154.254
 21
154.746
  0
LINE
  8
0
 10
-229.382
 11
-229.237
 20
154.746
 21
155.216
  0
LINE
  8
0
 10
-229.237
 11
-228.96
 20
155.216
 21
155.622
  0
LINE
  8
0
 10
-228.96
 11
-228.575
 20
155.622
 21
155.929
  0
LINE
  8
0
 10
-228.575
 11
-228.117
 20
155.929
 21
156.109
  0
LINE
  8
0
 10
-228.117
 11
-227.627
 20
156.109
 21
156.145
  0
LINE
  8
0
 10
-227.627
 11
-227.147
 20
156.145
 21
156.036
  0
LINE
  8
0
 10
-227.147
 11
-226.721
 20
156.036
 21
155.79
  0
LINE
  8
0
 10
-226.721
 11
-226.387
 20
155.79
 21
155.429
  0
LINE
  8
0
 10
-226.387
 11
-226.173
 20
155.429
 21
154.986
  0
LINE
  8
0
 10
-226.173
 11
-226.1
 20
154.986
 21
154.5
  0
LINE
  8
0
 10
-226.1
 11
-226.173
 20
154.5
 21
154.014
  0
LINE
  8
0
 10
-226.173
 11
-226.387
 20
154.014
 21
153.571
  0
LINE
  8
0
 10
-226.387
 11
-226.721
 20
153.571
 21
153.21
  0
LINE
  8
0
 10
-226.721
 11
-227.147
 20
153.21
 21
152.964
  0
LINE
  8
0
 10
-227.147
 11
-227.627
 20
152.964
 21
152.855
  0
LINE
  8
0
 10
-227.627
 11
-228.117
 20
152.855
 21
152.891
  0
LINE
  8
0
 10
-228.117
 11
-228.575
 20
152.891
 21
153.071
  0
LINE
  8
0
 10
-228.575
 11
-228.96
 20
153.071
 21
153.378
  0
LINE
  8
0
 10
-228.96
 11
-229.237
 20
153.378
 21
153.784
  0
LINE
  8
0
 10
-229.237
 11
-229.382
 20
153.784
 21
154.254
  0
LINE
  8
0
 10
-227.2
 11
-227.127
 20
8.2
 21
8.686
  0
LINE
  8
0
 10
-227.127
 11
-226.913
 20
8.686
 21
9.129
  0
LINE
  8
0
 10
-226.913
 11
-226.579
 20
9.129
 21
9.49
  0
LINE
  8
0
 10
-226.579
 11
-226.153
 20
9.49
 21
9.736
  0
LINE
  8
0
 10
-226.153
 11
-225.673
 20
9.736
 21
9.845
  0
LINE
  8
0
 10
-225.673
 11
-225.183
 20
9.845
 21
9.809
  0
LINE
  8
0
 10
-225.183
 11
-224.725
 20
9.809
 21
9.629
  0
LINE
  8
0
 10
-224.725
 11
-224.34
 20
9.629
 21
9.322
  0
LINE
  8
0
 10
-224.34
 11
-224.063
 20
9.322
 21
8.916
  0
LINE
  8
0
 10
-224.063
 11
-223.918
 20
8.916
 21
8.446
  0
LINE
  8
0
 10
-223.918
 11
-223.918
 20
8.446
 21
7.954
  0
LINE
  8
0
 10
-223.918
 11
-224.063
 20
7.954
 21
7.484
  0
LINE
  8
0
 10
-224.063
 11
-224.34
 20
7.484
 21
7.078
  0
LINE
  8
0
 10
-224.34
 11
-224.725
 20
7.078
 21
6.771
  0
LINE
  8
0
 10
-224.725
 11
-225.183
 20
6.771
 21
6.591
  0
LINE
  8
0
 10
-225.183
 11
-225.673
 20
6.591
 21
6.555
  0
LINE
  8
0
 10
-225.673
 11
-226.153
 20
6.555
 21
6.664
  0
LINE
  8
0
 10
-226.153
 11
-226.579
 20
6.664
 21
6.91
  0
LINE
  8
0
 10
-226.579
 11
-226.913
 20
6.91
 21
7.271
  0
LINE
  8
0
 10
-226.913
 11
-227.127
 20
7.271
 21
7.714
  0
LINE
  8
0
 10
-227.127
 11
-227.2
 20
7.714
 21
8.2
  0
LINE
  8
0
 10
-220.382
 11
-220.382
 20
60.754
 21
61.246
  0
LINE
  8
0
 10
-220.382
 11
-220.237
 20
61.246
 21
61.716
  0
LINE
  8
0
 10
-220.237
 11
-219.96
 20
61.716
 21
62.122
  0
LINE
  8
0
 10
-219.96
 11
-219.575
 20
62.122
 21
62.429
  0
LINE
  8
0
 10
-219.575
 11
-219.117
 20
62.429
 21
62.609
  0
LINE
  8
0
 10
-219.117
 11
-218.627
 20
62.609
 21
62.645
  0
LINE
  8
0
 10
-218.627
 11
-218.147
 20
62.645
 21
62.536
  0
LINE
  8
0
 10
-218.147
 11
-217.721
 20
62.536
 21
62.29
  0
LINE
  8
0
 10
-217.721
 11
-217.387
 20
62.29
 21
61.929
  0
LINE
  8
0
 10
-217.387
 11
-217.173
 20
61.929
 21
61.486
  0
LINE
  8
0
 10
-217.173
 11
-217.1
 20
61.486
 21
61
  0
LINE
  8
0
 10
-217.1
 11
-217.173
 20
61
 21
60.514
  0
LINE
  8
0
 10
-217.173
 11
-217.387
 20
60.514
 21
60.071
  0
LINE
  8
0
 10
-217.387
 11
-217.721
 20
60.071
 21
59.71
  0
LINE
  8
0
 10
-217.721
 11
-218.147
 20
59.71
 21
59.464
  0
LINE
  8
0
 10
-218.147
 11
-218.627
 20
59.464
 21
59.355
  0
LINE
  8
0
 10
-218.627
 11
-219.117
 20
59.355
 21
59.391
  0
LINE
  8
0
 10
-219.117
 11
-219.575
 20
59.391
 21
59.571
  0
LINE
  8
0
 10
-219.575
 11
-219.96
 20
59.571
 21
59.878
  0
LINE
  8
0
 10
-219.96
 11
-220.237
 20
59.878
 21
60.284
  0
LINE
  8
0
 10
-220.237
 11
-220.382
 20
60.284
 21
60.754
  0
LINE
  8
0
 10
-205.98
 11
-205.907
 20
8.2
 21
8.686
  0
LINE
  8
0
 10
-205.907
 11
-205.693
 20
8.686
 21
9.129
  0
LINE
  8
0
 10
-205.693
 11
-205.359
 20
9.129
 21
9.49
  0
LINE
  8
0
 10
-205.359
 11
-204.933
 20
9.49
 21
9.736
  0
LINE
  8
0
 10
-204.933
 11
-204.453
 20
9.736
 21
9.845
  0
LINE
  8
0
 10
-204.453
 11
-203.963
 20
9.845
 21
9.809
  0
LINE
  8
0
 10
-203.963
 11
-203.505
 20
9.809
 21
9.629
  0
LINE
  8
0
 10
-203.505
 11
-203.12
 20
9.629
 21
9.322
  0
LINE
  8
0
 10
-203.12
 11
-202.843
 20
9.322
 21
8.916
  0
LINE
  8
0
 10
-202.843
 11
-202.698
 20
8.916
 21
8.446
  0
LINE
  8
0
 10
-202.698
 11
-202.698
 20
8.446
 21
7.954
  0
LINE
  8
0
 10
-202.698
 11
-202.843
 20
7.954
 21
7.484
  0
LINE
  8
0
 10
-202.843
 11
-203.12
 20
7.484
 21
7.078
  0
LINE
  8
0
 10
-203.12
 11
-203.505
 20
7.078
 21
6.771
  0
LINE
  8
0
 10
-203.505
 11
-203.963
 20
6.771
 21
6.591
  0
LINE
  8
0
 10
-203.963
 11
-204.453
 20
6.591
 21
6.555
  0
LINE
  8
0
 10
-204.453
 11
-204.933
 20
6.555
 21
6.664
  0
LINE
  8
0
 10
-204.933
 11
-205.359
 20
6.664
 21
6.91
  0
LINE
  8
0
 10
-205.359
 11
-205.693
 20
6.91
 21
7.271
  0
LINE
  8
0
 10
-205.693
 11
-205.907
 20
7.271
 21
7.714
  0
LINE
  8
0
 10
-205.907
 11
-205.98
 20
7.714
 21
8.2
  0
LINE
  8
0
 10
-202.75
 11
-202.692
 20
73
 21
73.479
  0
LINE
  8
0
 10
-202.692
 11
-202.521
 20
73.479
 21
73.929
  0
LINE
  8
0
 10
-202.521
 11
-202.247
 20
73.929
 21
74.326
  0
LINE
  8
0
 10
-202.247
 11
-201.886
 20
74.326
 21
74.646
  0
LINE
  8
0
 10
-201.886
 11
-201.459
 20
74.646
 21
74.87
  0
LINE
  8
0
 10
-201.459
 11
-200.991
 20
74.87
 21
74.985
  0
LINE
  8
0
 10
-200.991
 11
-200.509
 20
74.985
 21
74.985
  0
LINE
  8
0
 10
-200.509
 11
-200.041
 20
74.985
 21
74.87
  0
LINE
  8
0
 10
-200.041
 11
-199.614
 20
74.87
 21
74.646
  0
LINE
  8
0
 10
-199.614
 11
-199.253
 20
74.646
 21
74.326
  0
LINE
  8
0
 10
-199.253
 11
-198.979
 20
74.326
 21
73.929
  0
LINE
  8
0
 10
-198.979
 11
-198.808
 20
73.929
 21
73.479
  0
LINE
  8
0
 10
-198.808
 11
-198.75
 20
73.479
 21
73
  0
LINE
  8
0
 10
-198.75
 11
-198.808
 20
73
 21
72.521
  0
LINE
  8
0
 10
-198.808
 11
-198.979
 20
72.521
 21
72.071
  0
LINE
  8
0
 10
-198.979
 11
-199.253
 20
72.071
 21
71.674
  0
LINE
  8
0
 10
-199.253
 11
-199.614
 20
71.674
 21
71.354
  0
LINE
  8
0
 10
-199.614
 11
-200.041
 20
71.354
 21
71.13
  0
LINE
  8
0
 10
-200.041
 11
-200.509
 20
71.13
 21
71.015
  0
LINE
  8
0
 10
-200.509
 11
-200.991
 20
71.015
 21
71.015
  0
LINE
  8
0
 10
-200.991
 11
-201.459
 20
71.015
 21
71.13
  0
LINE
  8
0
 10
-201.459
 11
-201.886
 20
71.13
 21
71.354
  0
LINE
  8
0
 10
-201.886
 11
-202.247
 20
71.354
 21
71.674
  0
LINE
  8
0
 10
-202.247
 11
-202.521
 20
71.674
 21
72.071
  0
LINE
  8
0
 10
-202.521
 11
-202.692
 20
72.071
 21
72.521
  0
LINE
  8
0
 10
-202.692
 11
-202.75
 20
72.521
 21
73
  0
LINE
  8
0
 10
-196.75
 11
-196.692
 20
370
 21
370.479
  0
LINE
  8
0
 10
-196.692
 11
-196.521
 20
370.479
 21
370.929
  0
LINE
  8
0
 10
-196.521
 11
-196.247
 20
370.929
 21
371.326
  0
LINE
  8
0
 10
-196.247
 11
-195.886
 20
371.326
 21
371.646
  0
LINE
  8
0
 10
-195.886
 11
-195.459
 20
371.646
 21
371.87
  0
LINE
  8
0
 10
-195.459
 11
-194.991
 20
371.87
 21
371.985
  0
LINE
  8
0
 10
-194.991
 11
-194.509
 20
371.985
 21
371.985
  0
LINE
  8
0
 10
-194.509
 11
-194.041
 20
371.985
 21
371.87
  0
LINE
  8
0
 10
-194.041
 11
-193.614
 20
371.87
 21
371.646
  0
LINE
  8
0
 10
-193.614
 11
-193.253
 20
371.646
 21
371.326
  0
LINE
  8
0
 10
-193.253
 11
-192.979
 20
371.326
 21
370.929
  0
LINE
  8
0
 10
-192.979
 11
-192.808
 20
370.929
 21
370.479
  0
LINE
  8
0
 10
-192.808
 11
-192.75
 20
370.479
 21
370
  0
LINE
  8
0
 10
-192.75
 11
-192.808
 20
370
 21
369.521
  0
LINE
  8
0
 10
-192.808
 11
-192.979
 20
369.521
 21
369.071
  0
LINE
  8
0
 10
-192.979
 11
-193.253
 20
369.071
 21
368.674
  0
LINE
  8
0
 10
-193.253
 11
-193.614
 20
368.674
 21
368.354
  0
LINE
  8
0
 10
-193.614
 11
-194.041
 20
368.354
 21
368.13
  0
LINE
  8
0
 10
-194.041
 11
-194.509
 20
368.13
 21
368.015
  0
LINE
  8
0
 10
-194.509
 11
-194.991
 20
368.015
 21
368.015
  0
LINE
  8
0
 10
-194.991
 11
-195.459
 20
368.015
 21
368.13
  0
LINE
  8
0
 10
-195.459
 11
-195.886
 20
368.13
 21
368.354
  0
LINE
  8
0
 10
-195.886
 11
-196.247
 20
368.354
 21
368.674
  0
LINE
  8
0
 10
-196.247
 11
-196.521
 20
368.674
 21
369.071
  0
LINE
  8
0
 10
-196.521
 11
-196.692
 20
369.071
 21
369.521
  0
LINE
  8
0
 10
-196.692
 11
-196.75
 20
369.521
 21
370
  0
LINE
  8
0
 10
-196.395
 11
-196.359
 20
380.377
 21
380.867
  0
LINE
  8
0
 10
-196.359
 11
-196.179
 20
380.867
 21
381.325
  0
LINE
  8
0
 10
-196.179
 11
-195.872
 20
381.325
 21
381.71
  0
LINE
  8
0
 10
-195.872
 11
-195.466
 20
381.71
 21
381.987
  0
LINE
  8
0
 10
-195.466
 11
-194.996
 20
381.987
 21
382.132
  0
LINE
  8
0
 10
-194.996
 11
-194.504
 20
382.132
 21
382.132
  0
LINE
  8
0
 10
-194.504
 11
-194.034
 20
382.132
 21
381.987
  0
LINE
  8
0
 10
-194.034
 11
-193.628
 20
381.987
 21
381.71
  0
LINE
  8
0
 10
-193.628
 11
-193.321
 20
381.71
 21
381.325
  0
LINE
  8
0
 10
-193.321
 11
-193.141
 20
381.325
 21
380.867
  0
LINE
  8
0
 10
-193.141
 11
-193.105
 20
380.867
 21
380.377
  0
LINE
  8
0
 10
-193.105
 11
-193.214
 20
380.377
 21
379.897
  0
LINE
  8
0
 10
-193.214
 11
-193.46
 20
379.897
 21
379.471
  0
LINE
  8
0
 10
-193.46
 11
-193.821
 20
379.471
 21
379.137
  0
LINE
  8
0
 10
-193.821
 11
-194.264
 20
379.137
 21
378.923
  0
LINE
  8
0
 10
-194.264
 11
-194.75
 20
378.923
 21
378.85
  0
LINE
  8
0
 10
-194.75
 11
-195.236
 20
378.85
 21
378.923
  0
LINE
  8
0
 10
-195.236
 11
-195.679
 20
378.923
 21
379.137
  0
LINE
  8
0
 10
-195.679
 11
-196.04
 20
379.137
 21
379.471
  0
LINE
  8
0
 10
-196.04
 11
-196.286
 20
379.471
 21
379.897
  0
LINE
  8
0
 10
-196.286
 11
-196.395
 20
379.897
 21
380.377
  0
LINE
  8
0
 10
-194.63
 11
-194.582
 20
7.5
 21
7.988
  0
LINE
  8
0
 10
-194.582
 11
-194.44
 20
7.988
 21
8.457
  0
LINE
  8
0
 10
-194.44
 11
-194.209
 20
8.457
 21
8.889
  0
LINE
  8
0
 10
-194.209
 11
-193.898
 20
8.889
 21
9.268
  0
LINE
  8
0
 10
-193.898
 11
-193.519
 20
9.268
 21
9.579
  0
LINE
  8
0
 10
-193.519
 11
-193.087
 20
9.579
 21
9.81
  0
LINE
  8
0
 10
-193.087
 11
-192.618
 20
9.81
 21
9.952
  0
LINE
  8
0
 10
-192.618
 11
-192.13
 20
9.952
 21
10
  0
LINE
  8
0
 10
-192.13
 11
-191.642
 20
10
 21
9.952
  0
LINE
  8
0
 10
-191.642
 11
-191.173
 20
9.952
 21
9.81
  0
LINE
  8
0
 10
-191.173
 11
-190.741
 20
9.81
 21
9.579
  0
LINE
  8
0
 10
-190.741
 11
-190.362
 20
9.579
 21
9.268
  0
LINE
  8
0
 10
-190.362
 11
-190.051
 20
9.268
 21
8.889
  0
LINE
  8
0
 10
-190.051
 11
-189.82
 20
8.889
 21
8.457
  0
LINE
  8
0
 10
-189.82
 11
-189.678
 20
8.457
 21
7.988
  0
LINE
  8
0
 10
-189.678
 11
-189.63
 20
7.988
 21
7.5
  0
LINE
  8
0
 10
-189.63
 11
-189.678
 20
7.5
 21
7.012
  0
LINE
  8
0
 10
-189.678
 11
-189.82
 20
7.012
 21
6.543
  0
LINE
  8
0
 10
-189.82
 11
-190.051
 20
6.543
 21
6.111
  0
LINE
  8
0
 10
-190.051
 11
-190.362
 20
6.111
 21
5.732
  0
LINE
  8
0
 10
-190.362
 11
-190.741
 20
5.732
 21
5.421
  0
LINE
  8
0
 10
-190.741
 11
-191.173
 20
5.421
 21
5.19
  0
LINE
  8
0
 10
-191.173
 11
-191.642
 20
5.19
 21
5.048
  0
LINE
  8
0
 10
-191.642
 11
-192.13
 20
5.048
 21
5
  0
LINE
  8
0
 10
-192.13
 11
-192.618
 20
5
 21
5.048
  0
LINE
  8
0
 10
-192.618
 11
-193.087
 20
5.048
 21
5.19
  0
LINE
  8
0
 10
-193.087
 11
-193.519
 20
5.19
 21
5.421
  0
LINE
  8
0
 10
-193.519
 11
-193.898
 20
5.421
 21
5.732
  0
LINE
  8
0
 10
-193.898
 11
-194.209
 20
5.732
 21
6.111
  0
LINE
  8
0
 10
-194.209
 11
-194.44
 20
6.111
 21
6.543
  0
LINE
  8
0
 10
-194.44
 11
-194.582
 20
6.543
 21
7.012
  0
LINE
  8
0
 10
-194.582
 11
-194.63
 20
7.012
 21
7.5
  0
LINE
  8
0
 10
-188.382
 11
-188.382
 20
60.754
 21
61.246
  0
LINE
  8
0
 10
-188.382
 11
-188.237
 20
61.246
 21
61.716
  0
LINE
  8
0
 10
-188.237
 11
-187.96
 20
61.716
 21
62.122
  0
LINE
  8
0
 10
-187.96
 11
-187.575
 20
62.122
 21
62.429
  0
LINE
  8
0
 10
-187.575
 11
-187.117
 20
62.429
 21
62.609
  0
LINE
  8
0
 10
-187.117
 11
-186.627
 20
62.609
 21
62.645
  0
LINE
  8
0
 10
-186.627
 11
-186.147
 20
62.645
 21
62.536
  0
LINE
  8
0
 10
-186.147
 11
-185.721
 20
62.536
 21
62.29
  0
LINE
  8
0
 10
-185.721
 11
-185.387
 20
62.29
 21
61.929
  0
LINE
  8
0
 10
-185.387
 11
-185.173
 20
61.929
 21
61.486
  0
LINE
  8
0
 10
-185.173
 11
-185.1
 20
61.486
 21
61
  0
LINE
  8
0
 10
-185.1
 11
-185.173
 20
61
 21
60.514
  0
LINE
  8
0
 10
-185.173
 11
-185.387
 20
60.514
 21
60.071
  0
LINE
  8
0
 10
-185.387
 11
-185.721
 20
60.071
 21
59.71
  0
LINE
  8
0
 10
-185.721
 11
-186.147
 20
59.71
 21
59.464
  0
LINE
  8
0
 10
-186.147
 11
-186.627
 20
59.464
 21
59.355
  0
LINE
  8
0
 10
-186.627
 11
-187.117
 20
59.355
 21
59.391
  0
LINE
  8
0
 10
-187.117
 11
-187.575
 20
59.391
 21
59.571
  0
LINE
  8
0
 10
-187.575
 11
-187.96
 20
59.571
 21
59.878
  0
LINE
  8
0
 10
-187.96
 11
-188.237
 20
59.878
 21
60.284
  0
LINE
  8
0
 10
-188.237
 11
-188.382
 20
60.284
 21
60.754
  0
LINE
  8
0
 10
-168.695
 11
-168.586
 20
36.833
 21
37.313
  0
LINE
  8
0
 10
-168.586
 11
-168.34
 20
37.313
 21
37.739
  0
LINE
  8
0
 10
-168.34
 11
-167.979
 20
37.739
 21
38.073
  0
LINE
  8
0
 10
-167.979
 11
-167.536
 20
38.073
 21
38.287
  0
LINE
  8
0
 10
-167.536
 11
-167.05
 20
38.287
 21
38.36
  0
LINE
  8
0
 10
-167.05
 11
-166.564
 20
38.36
 21
38.287
  0
LINE
  8
0
 10
-166.564
 11
-166.121
 20
38.287
 21
38.073
  0
LINE
  8
0
 10
-166.121
 11
-165.76
 20
38.073
 21
37.739
  0
LINE
  8
0
 10
-165.76
 11
-165.514
 20
37.739
 21
37.313
  0
LINE
  8
0
 10
-165.514
 11
-165.405
 20
37.313
 21
36.833
  0
LINE
  8
0
 10
-165.405
 11
-165.441
 20
36.833
 21
36.343
  0
LINE
  8
0
 10
-165.441
 11
-165.621
 20
36.343
 21
35.885
  0
LINE
  8
0
 10
-165.621
 11
-165.928
 20
35.885
 21
35.5
  0
LINE
  8
0
 10
-165.928
 11
-166.334
 20
35.5
 21
35.223
  0
LINE
  8
0
 10
-166.334
 11
-166.804
 20
35.223
 21
35.078
  0
LINE
  8
0
 10
-166.804
 11
-167.296
 20
35.078
 21
35.078
  0
LINE
  8
0
 10
-167.296
 11
-167.766
 20
35.078
 21
35.223
  0
LINE
  8
0
 10
-167.766
 11
-168.172
 20
35.223
 21
35.5
  0
LINE
  8
0
 10
-168.172
 11
-168.479
 20
35.5
 21
35.885
  0
LINE
  8
0
 10
-168.479
 11
-168.659
 20
35.885
 21
36.343
  0
LINE
  8
0
 10
-168.659
 11
-168.695
 20
36.343
 21
36.833
  0
LINE
  8
0
 10
-168.695
 11
-168.586
 20
352.413
 21
352.893
  0
LINE
  8
0
 10
-168.586
 11
-168.34
 20
352.893
 21
353.319
  0
LINE
  8
0
 10
-168.34
 11
-167.979
 20
353.319
 21
353.653
  0
LINE
  8
0
 10
-167.979
 11
-167.536
 20
353.653
 21
353.867
  0
LINE
  8
0
 10
-167.536
 11
-167.05
 20
353.867
 21
353.94
  0
LINE
  8
0
 10
-167.05
 11
-166.564
 20
353.94
 21
353.867
  0
LINE
  8
0
 10
-166.564
 11
-166.121
 20
353.867
 21
353.653
  0
LINE
  8
0
 10
-166.121
 11
-165.76
 20
353.653
 21
353.319
  0
LINE
  8
0
 10
-165.76
 11
-165.514
 20
353.319
 21
352.893
  0
LINE
  8
0
 10
-165.514
 11
-165.405
 20
352.893
 21
352.413
  0
LINE
  8
0
 10
-165.405
 11
-165.441
 20
352.413
 21
351.923
  0
LINE
  8
0
 10
-165.441
 11
-165.621
 20
351.923
 21
351.465
  0
LINE
  8
0
 10
-165.621
 11
-165.928
 20
351.465
 21
351.08
  0
LINE
  8
0
 10
-165.928
 11
-166.334
 20
351.08
 21
350.803
  0
LINE
  8
0
 10
-166.334
 11
-166.804
 20
350.803
 21
350.658
  0
LINE
  8
0
 10
-166.804
 11
-167.296
 20
350.658
 21
350.658
  0
LINE
  8
0
 10
-167.296
 11
-167.766
 20
350.658
 21
350.803
  0
LINE
  8
0
 10
-167.766
 11
-168.172
 20
350.803
 21
351.08
  0
LINE
  8
0
 10
-168.172
 11
-168.479
 20
351.08
 21
351.465
  0
LINE
  8
0
 10
-168.479
 11
-168.659
 20
351.465
 21
351.923
  0
LINE
  8
0
 10
-168.659
 11
-168.695
 20
351.923
 21
352.413
  0
LINE
  8
0
 10
-164.895
 11
-164.859
 20
322.857
 21
323.347
  0
LINE
  8
0
 10
-164.859
 11
-164.679
 20
323.347
 21
323.805
  0
LINE
  8
0
 10
-164.679
 11
-164.372
 20
323.805
 21
324.19
  0
LINE
  8
0
 10
-164.372
 11
-163.966
 20
324.19
 21
324.467
  0
LINE
  8
0
 10
-163.966
 11
-163.496
 20
324.467
 21
324.612
  0
LINE
  8
0
 10
-163.496
 11
-163.004
 20
324.612
 21
324.612
  0
LINE
  8
0
 10
-163.004
 11
-162.534
 20
324.612
 21
324.467
  0
LINE
  8
0
 10
-162.534
 11
-162.128
 20
324.467
 21
324.19
  0
LINE
  8
0
 10
-162.128
 11
-161.821
 20
324.19
 21
323.805
  0
LINE
  8
0
 10
-161.821
 11
-161.641
 20
323.805
 21
323.347
  0
LINE
  8
0
 10
-161.641
 11
-161.605
 20
323.347
 21
322.857
  0
LINE
  8
0
 10
-161.605
 11
-161.714
 20
322.857
 21
322.377
  0
LINE
  8
0
 10
-161.714
 11
-161.96
 20
322.377
 21
321.951
  0
LINE
  8
0
 10
-161.96
 11
-162.321
 20
321.951
 21
321.617
  0
LINE
  8
0
 10
-162.321
 11
-162.764
 20
321.617
 21
321.403
  0
LINE
  8
0
 10
-162.764
 11
-163.25
 20
321.403
 21
321.33
  0
LINE
  8
0
 10
-163.25
 11
-163.736
 20
321.33
 21
321.403
  0
LINE
  8
0
 10
-163.736
 11
-164.179
 20
321.403
 21
321.617
  0
LINE
  8
0
 10
-164.179
 11
-164.54
 20
321.617
 21
321.951
  0
LINE
  8
0
 10
-164.54
 11
-164.786
 20
321.951
 21
322.377
  0
LINE
  8
0
 10
-164.786
 11
-164.895
 20
322.377
 21
322.857
  0
LINE
  8
0
 10
-163.82
 11
-163.747
 20
8.2
 21
8.686
  0
LINE
  8
0
 10
-163.747
 11
-163.533
 20
8.686
 21
9.129
  0
LINE
  8
0
 10
-163.533
 11
-163.199
 20
9.129
 21
9.49
  0
LINE
  8
0
 10
-163.199
 11
-162.773
 20
9.49
 21
9.736
  0
LINE
  8
0
 10
-162.773
 11
-162.293
 20
9.736
 21
9.845
  0
LINE
  8
0
 10
-162.293
 11
-161.803
 20
9.845
 21
9.809
  0
LINE
  8
0
 10
-161.803
 11
-161.345
 20
9.809
 21
9.629
  0
LINE
  8
0
 10
-161.345
 11
-160.96
 20
9.629
 21
9.322
  0
LINE
  8
0
 10
-160.96
 11
-160.683
 20
9.322
 21
8.916
  0
LINE
  8
0
 10
-160.683
 11
-160.538
 20
8.916
 21
8.446
  0
LINE
  8
0
 10
-160.538
 11
-160.538
 20
8.446
 21
7.954
  0
LINE
  8
0
 10
-160.538
 11
-160.683
 20
7.954
 21
7.484
  0
LINE
  8
0
 10
-160.683
 11
-160.96
 20
7.484
 21
7.078
  0
LINE
  8
0
 10
-160.96
 11
-161.345
 20
7.078
 21
6.771
  0
LINE
  8
0
 10
-161.345
 11
-161.803
 20
6.771
 21
6.591
  0
LINE
  8
0
 10
-161.803
 11
-162.293
 20
6.591
 21
6.555
  0
LINE
  8
0
 10
-162.293
 11
-162.773
 20
6.555
 21
6.664
  0
LINE
  8
0
 10
-162.773
 11
-163.199
 20
6.664
 21
6.91
  0
LINE
  8
0
 10
-163.199
 11
-163.533
 20
6.91
 21
7.271
  0
LINE
  8
0
 10
-163.533
 11
-163.747
 20
7.271
 21
7.714
  0
LINE
  8
0
 10
-163.747
 11
-163.82
 20
7.714
 21
8.2
  0
LINE
  8
0
 10
-163.395
 11
-163.359
 20
380.377
 21
380.867
  0
LINE
  8
0
 10
-163.359
 11
-163.179
 20
380.867
 21
381.325
  0
LINE
  8
0
 10
-163.179
 11
-162.872
 20
381.325
 21
381.71
  0
LINE
  8
0
 10
-162.872
 11
-162.466
 20
381.71
 21
381.987
  0
LINE
  8
0
 10
-162.466
 11
-161.996
 20
381.987
 21
382.132
  0
LINE
  8
0
 10
-161.996
 11
-161.504
 20
382.132
 21
382.132
  0
LINE
  8
0
 10
-161.504
 11
-161.034
 20
382.132
 21
381.987
  0
LINE
  8
0
 10
-161.034
 11
-160.628
 20
381.987
 21
381.71
  0
LINE
  8
0
 10
-160.628
 11
-160.321
 20
381.71
 21
381.325
  0
LINE
  8
0
 10
-160.321
 11
-160.141
 20
381.325
 21
380.867
  0
LINE
  8
0
 10
-160.141
 11
-160.105
 20
380.867
 21
380.377
  0
LINE
  8
0
 10
-160.105
 11
-160.214
 20
380.377
 21
379.897
  0
LINE
  8
0
 10
-160.214
 11
-160.46
 20
379.897
 21
379.471
  0
LINE
  8
0
 10
-160.46
 11
-160.821
 20
379.471
 21
379.137
  0
LINE
  8
0
 10
-160.821
 11
-161.264
 20
379.137
 21
378.923
  0
LINE
  8
0
 10
-161.264
 11
-161.75
 20
378.923
 21
378.85
  0
LINE
  8
0
 10
-161.75
 11
-162.236
 20
378.85
 21
378.923
  0
LINE
  8
0
 10
-162.236
 11
-162.679
 20
378.923
 21
379.137
  0
LINE
  8
0
 10
-162.679
 11
-163.04
 20
379.137
 21
379.471
  0
LINE
  8
0
 10
-163.04
 11
-163.286
 20
379.471
 21
379.897
  0
LINE
  8
0
 10
-163.286
 11
-163.395
 20
379.897
 21
380.377
  0
LINE
  8
0
 10
-142.6
 11
-142.527
 20
8.2
 21
8.686
  0
LINE
  8
0
 10
-142.527
 11
-142.313
 20
8.686
 21
9.129
  0
LINE
  8
0
 10
-142.313
 11
-141.979
 20
9.129
 21
9.49
  0
LINE
  8
0
 10
-141.979
 11
-141.553
 20
9.49
 21
9.736
  0
LINE
  8
0
 10
-141.553
 11
-141.073
 20
9.736
 21
9.845
  0
LINE
  8
0
 10
-141.073
 11
-140.583
 20
9.845
 21
9.809
  0
LINE
  8
0
 10
-140.583
 11
-140.125
 20
9.809
 21
9.629
  0
LINE
  8
0
 10
-140.125
 11
-139.74
 20
9.629
 21
9.322
  0
LINE
  8
0
 10
-139.74
 11
-139.463
 20
9.322
 21
8.916
  0
LINE
  8
0
 10
-139.463
 11
-139.318
 20
8.916
 21
8.446
  0
LINE
  8
0
 10
-139.318
 11
-139.318
 20
8.446
 21
7.954
  0
LINE
  8
0
 10
-139.318
 11
-139.463
 20
7.954
 21
7.484
  0
LINE
  8
0
 10
-139.463
 11
-139.74
 20
7.484
 21
7.078
  0
LINE
  8
0
 10
-139.74
 11
-140.125
 20
7.078
 21
6.771
  0
LINE
  8
0
 10
-140.125
 11
-140.583
 20
6.771
 21
6.591
  0
LINE
  8
0
 10
-140.583
 11
-141.073
 20
6.591
 21
6.555
  0
LINE
  8
0
 10
-141.073
 11
-141.553
 20
6.555
 21
6.664
  0
LINE
  8
0
 10
-141.553
 11
-141.979
 20
6.664
 21
6.91
  0
LINE
  8
0
 10
-141.979
 11
-142.313
 20
6.91
 21
7.271
  0
LINE
  8
0
 10
-142.313
 11
-142.527
 20
7.271
 21
7.714
  0
LINE
  8
0
 10
-142.527
 11
-142.6
 20
7.714
 21
8.2
  0
LINE
  8
0
 10
-131.734
 11
-131.734
 20
280.851
 21
281.349
  0
LINE
  8
0
 10
-131.734
 11
-131.684
 20
281.349
 21
281.844
  0
LINE
  8
0
 10
-131.684
 11
-131.586
 20
281.844
 21
282.331
  0
LINE
  8
0
 10
-131.586
 11
-131.439
 20
282.331
 21
282.807
  0
LINE
  8
0
 10
-131.439
 11
-131.246
 20
282.807
 21
283.265
  0
LINE
  8
0
 10
-131.246
 11
-131.008
 20
283.265
 21
283.702
  0
LINE
  8
0
 10
-131.008
 11
-130.728
 20
283.702
 21
284.113
  0
LINE
  8
0
 10
-130.728
 11
-130.408
 20
284.113
 21
284.494
  0
LINE
  8
0
 10
-130.408
 11
-130.052
 20
284.494
 21
284.841
  0
LINE
  8
0
 10
-130.052
 11
-129.663
 20
284.841
 21
285.152
  0
LINE
  8
0
 10
-129.663
 11
-129.245
 20
285.152
 21
285.421
  0
LINE
  8
0
 10
-129.245
 11
-128.802
 20
285.421
 21
285.648
  0
LINE
  8
0
 10
-128.802
 11
-128.339
 20
285.648
 21
285.83
  0
LINE
  8
0
 10
-128.339
 11
-127.86
 20
285.83
 21
285.965
  0
LINE
  8
0
 10
-127.86
 11
-127.37
 20
285.965
 21
286.051
  0
LINE
  8
0
 10
-127.37
 11
-126.874
 20
286.051
 21
286.088
  0
LINE
  8
0
 10
-126.874
 11
-126.377
 20
286.088
 21
286.076
  0
LINE
  8
0
 10
-126.377
 11
-125.883
 20
286.076
 21
286.014
  0
LINE
  8
0
 10
-125.883
 11
-125.399
 20
286.014
 21
285.903
  0
LINE
  8
0
 10
-125.399
 11
-124.927
 20
285.903
 21
285.745
  0
LINE
  8
0
 10
-124.927
 11
-124.474
 20
285.745
 21
285.54
  0
LINE
  8
0
 10
-124.474
 11
-124.043
 20
285.54
 21
285.292
  0
LINE
  8
0
 10
-124.043
 11
-123.639
 20
285.292
 21
285.001
  0
LINE
  8
0
 10
-123.639
 11
-123.266
 20
285.001
 21
284.672
  0
LINE
  8
0
 10
-123.266
 11
-122.927
 20
284.672
 21
284.308
  0
LINE
  8
0
 10
-122.927
 11
-122.627
 20
284.308
 21
283.911
  0
LINE
  8
0
 10
-122.627
 11
-122.368
 20
283.911
 21
283.486
  0
LINE
  8
0
 10
-122.368
 11
-122.152
 20
283.486
 21
283.038
  0
LINE
  8
0
 10
-122.152
 11
-121.982
 20
283.038
 21
282.571
  0
LINE
  8
0
 10
-121.982
 11
-121.859
 20
282.571
 21
282.089
  0
LINE
  8
0
 10
-121.859
 11
-121.785
 20
282.089
 21
281.597
  0
LINE
  8
0
 10
-121.785
 11
-121.76
 20
281.597
 21
281.1
  0
LINE
  8
0
 10
-121.76
 11
-121.785
 20
281.1
 21
280.603
  0
LINE
  8
0
 10
-121.785
 11
-121.859
 20
280.603
 21
280.111
  0
LINE
  8
0
 10
-121.859
 11
-121.982
 20
280.111
 21
279.629
  0
LINE
  8
0
 10
-121.982
 11
-122.152
 20
279.629
 21
279.162
  0
LINE
  8
0
 10
-122.152
 11
-122.368
 20
279.162
 21
278.714
  0
LINE
  8
0
 10
-122.368
 11
-122.627
 20
278.714
 21
278.289
  0
LINE
  8
0
 10
-122.627
 11
-122.927
 20
278.289
 21
277.892
  0
LINE
  8
0
 10
-122.927
 11
-123.266
 20
277.892
 21
277.528
  0
LINE
  8
0
 10
-123.266
 11
-123.639
 20
277.528
 21
277.199
  0
LINE
  8
0
 10
-123.639
 11
-124.043
 20
277.199
 21
276.908
  0
LINE
  8
0
 10
-124.043
 11
-124.474
 20
276.908
 21
276.66
  0
LINE
  8
0
 10
-124.474
 11
-124.927
 20
276.66
 21
276.455
  0
LINE
  8
0
 10
-124.927
 11
-125.399
 20
276.455
 21
276.297
  0
LINE
  8
0
 10
-125.399
 11
-125.883
 20
276.297
 21
276.186
  0
LINE
  8
0
 10
-125.883
 11
-126.377
 20
276.186
 21
276.124
  0
LINE
  8
0
 10
-126.377
 11
-126.874
 20
276.124
 21
276.112
  0
LINE
  8
0
 10
-126.874
 11
-127.37
 20
276.112
 21
276.149
  0
LINE
  8
0
 10
-127.37
 11
-127.86
 20
276.149
 21
276.235
  0
LINE
  8
0
 10
-127.86
 11
-128.339
 20
276.235
 21
276.37
  0
LINE
  8
0
 10
-128.339
 11
-128.802
 20
276.37
 21
276.552
  0
LINE
  8
0
 10
-128.802
 11
-129.245
 20
276.552
 21
276.779
  0
LINE
  8
0
 10
-129.245
 11
-129.663
 20
276.779
 21
277.048
  0
LINE
  8
0
 10
-129.663
 11
-130.052
 20
277.048
 21
277.359
  0
LINE
  8
0
 10
-130.052
 11
-130.408
 20
277.359
 21
277.706
  0
LINE
  8
0
 10
-130.408
 11
-130.728
 20
277.706
 21
278.087
  0
LINE
  8
0
 10
-130.728
 11
-131.008
 20
278.087
 21
278.498
  0
LINE
  8
0
 10
-131.008
 11
-131.246
 20
278.498
 21
278.935
  0
LINE
  8
0
 10
-131.246
 11
-131.439
 20
278.935
 21
279.393
  0
LINE
  8
0
 10
-131.439
 11
-131.586
 20
279.393
 21
279.869
  0
LINE
  8
0
 10
-131.586
 11
-131.684
 20
279.869
 21
280.356
  0
LINE
  8
0
 10
-131.684
 11
-131.734
 20
280.356
 21
280.851
  0
LINE
  8
0
 10
108.266
 11
108.266
 20
280.851
 21
281.349
  0
LINE
  8
0
 10
108.266
 11
108.316
 20
281.349
 21
281.844
  0
LINE
  8
0
 10
108.316
 11
108.414
 20
281.844
 21
282.331
  0
LINE
  8
0
 10
108.414
 11
108.561
 20
282.331
 21
282.807
  0
LINE
  8
0
 10
108.561
 11
108.754
 20
282.807
 21
283.265
  0
LINE
  8
0
 10
108.754
 11
108.992
 20
283.265
 21
283.702
  0
LINE
  8
0
 10
108.992
 11
109.272
 20
283.702
 21
284.113
  0
LINE
  8
0
 10
109.272
 11
109.592
 20
284.113
 21
284.494
  0
LINE
  8
0
 10
109.592
 11
109.948
 20
284.494
 21
284.841
  0
LINE
  8
0
 10
109.948
 11
110.337
 20
284.841
 21
285.152
  0
LINE
  8
0
 10
110.337
 11
110.755
 20
285.152
 21
285.421
  0
LINE
  8
0
 10
110.755
 11
111.198
 20
285.421
 21
285.648
  0
LINE
  8
0
 10
111.198
 11
111.661
 20
285.648
 21
285.83
  0
LINE
  8
0
 10
111.661
 11
112.14
 20
285.83
 21
285.965
  0
LINE
  8
0
 10
112.14
 11
112.63
 20
285.965
 21
286.051
  0
LINE
  8
0
 10
112.63
 11
113.126
 20
286.051
 21
286.088
  0
LINE
  8
0
 10
113.126
 11
113.623
 20
286.088
 21
286.076
  0
LINE
  8
0
 10
113.623
 11
114.117
 20
286.076
 21
286.014
  0
LINE
  8
0
 10
114.117
 11
114.601
 20
286.014
 21
285.903
  0
LINE
  8
0
 10
114.601
 11
115.073
 20
285.903
 21
285.745
  0
LINE
  8
0
 10
115.073
 11
115.526
 20
285.745
 21
285.54
  0
LINE
  8
0
 10
115.526
 11
115.957
 20
285.54
 21
285.292
  0
LINE
  8
0
 10
115.957
 11
116.361
 20
285.292
 21
285.001
  0
LINE
  8
0
 10
116.361
 11
116.734
 20
285.001
 21
284.672
  0
LINE
  8
0
 10
116.734
 11
117.073
 20
284.672
 21
284.308
  0
LINE
  8
0
 10
117.073
 11
117.373
 20
284.308
 21
283.911
  0
LINE
  8
0
 10
117.373
 11
117.632
 20
283.911
 21
283.486
  0
LINE
  8
0
 10
117.632
 11
117.848
 20
283.486
 21
283.038
  0
LINE
  8
0
 10
117.848
 11
118.018
 20
283.038
 21
282.571
  0
LINE
  8
0
 10
118.018
 11
118.141
 20
282.571
 21
282.089
  0
LINE
  8
0
 10
118.141
 11
118.215
 20
282.089
 21
281.597
  0
LINE
  8
0
 10
118.215
 11
118.24
 20
281.597
 21
281.1
  0
LINE
  8
0
 10
118.24
 11
118.215
 20
281.1
 21
280.603
  0
LINE
  8
0
 10
118.215
 11
118.141
 20
280.603
 21
280.111
  0
LINE
  8
0
 10
118.141
 11
118.018
 20
280.111
 21
279.629
  0
LINE
  8
0
 10
118.018
 11
117.848
 20
279.629
 21
279.162
  0
LINE
  8
0
 10
117.848
 11
117.632
 20
279.162
 21
278.714
  0
LINE
  8
0
 10
117.632
 11
117.373
 20
278.714
 21
278.289
  0
LINE
  8
0
 10
117.373
 11
117.073
 20
278.289
 21
277.892
  0
LINE
  8
0
 10
117.073
 11
116.734
 20
277.892
 21
277.528
  0
LINE
  8
0
 10
116.734
 11
116.361
 20
277.528
 21
277.199
  0
LINE
  8
0
 10
116.361
 11
115.957
 20
277.199
 21
276.908
  0
LINE
  8
0
 10
115.957
 11
115.526
 20
276.908
 21
276.66
  0
LINE
  8
0
 10
115.526
 11
115.073
 20
276.66
 21
276.455
  0
LINE
  8
0
 10
115.073
 11
114.601
 20
276.455
 21
276.297
  0
LINE
  8
0
 10
114.601
 11
114.117
 20
276.297
 21
276.186
  0
LINE
  8
0
 10
114.117
 11
113.623
 20
276.186
 21
276.124
  0
LINE
  8
0
 10
113.623
 11
113.126
 20
276.124
 21
276.112
  0
LINE
  8
0
 10
113.126
 11
112.63
 20
276.112
 21
276.149
  0
LINE
  8
0
 10
112.63
 11
112.14
 20
276.149
 21
276.235
  0
LINE
  8
0
 10
112.14
 11
111.661
 20
276.235
 21
276.37
  0
LINE
  8
0
 10
111.661
 11
111.198
 20
276.37
 21
276.552
  0
LINE
  8
0
 10
111.198
 11
110.755
 20
276.552
 21
276.779
  0
LINE
  8
0
 10
110.755
 11
110.337
 20
276.779
 21
277.048
  0
LINE
  8
0
 10
110.337
 11
109.948
 20
277.048
 21
277.359
  0
LINE
  8
0
 10
109.948
 11
109.592
 20
277.359
 21
277.706
  0
LINE
  8
0
 10
109.592
 11
109.272
 20
277.706
 21
278.087
  0
LINE
  8
0
 10
109.272
 11
108.992
 20
278.087
 21
278.498
  0
LINE
  8
0
 10
108.992
 11
108.754
 20
278.498
 21
278.935
  0
LINE
  8
0
 10
108.754
 11
108.561
 20
278.935
 21
279.393
  0
LINE
  8
0
 10
108.561
 11
108.414
 20
279.393
 21
279.869
  0
LINE
  8
0
 10
108.414
 11
108.316
 20
279.869
 21
280.356
  0
LINE
  8
0
 10
108.316
 11
108.266
 20
280.356
 21
280.851
  0
LINE
  8
0
 10
122.605
 11
122.641
 20
380.377
 21
380.867
  0
LINE
  8
0
 10
122.641
 11
122.821
 20
380.867
 21
381.325
  0
LINE
  8
0
 10
122.821
 11
123.128
 20
381.325
 21
381.71
  0
LINE
  8
0
 10
123.128
 11
123.534
 20
381.71
 21
381.987
  0
LINE
  8
0
 10
123.534
 11
124.004
 20
381.987
 21
382.132
  0
LINE
  8
0
 10
124.004
 11
124.496
 20
382.132
 21
382.132
  0
LINE
  8
0
 10
124.496
 11
124.966
 20
382.132
 21
381.987
  0
LINE
  8
0
 10
124.966
 11
125.372
 20
381.987
 21
381.71
  0
LINE
  8
0
 10
125.372
 11
125.679
 20
381.71
 21
381.325
  0
LINE
  8
0
 10
125.679
 11
125.859
 20
381.325
 21
380.867
  0
LINE
  8
0
 10
125.859
 11
125.895
 20
380.867
 21
380.377
  0
LINE
  8
0
 10
125.895
 11
125.786
 20
380.377
 21
379.897
  0
LINE
  8
0
 10
125.786
 11
125.54
 20
379.897
 21
379.471
  0
LINE
  8
0
 10
125.54
 11
125.179
 20
379.471
 21
379.137
  0
LINE
  8
0
 10
125.179
 11
124.736
 20
379.137
 21
378.923
  0
LINE
  8
0
 10
124.736
 11
124.25
 20
378.923
 21
378.85
  0
LINE
  8
0
 10
124.25
 11
123.764
 20
378.85
 21
378.923
  0
LINE
  8
0
 10
123.764
 11
123.321
 20
378.923
 21
379.137
  0
LINE
  8
0
 10
123.321
 11
122.96
 20
379.137
 21
379.471
  0
LINE
  8
0
 10
122.96
 11
122.714
 20
379.471
 21
379.897
  0
LINE
  8
0
 10
122.714
 11
122.605
 20
379.897
 21
380.377
  0
LINE
  8
0
 10
123.005
 11
123.041
 20
322.857
 21
323.347
  0
LINE
  8
0
 10
123.041
 11
123.221
 20
323.347
 21
323.805
  0
LINE
  8
0
 10
123.221
 11
123.528
 20
323.805
 21
324.19
  0
LINE
  8
0
 10
123.528
 11
123.934
 20
324.19
 21
324.467
  0
LINE
  8
0
 10
123.934
 11
124.404
 20
324.467
 21
324.612
  0
LINE
  8
0
 10
124.404
 11
124.896
 20
324.612
 21
324.612
  0
LINE
  8
0
 10
124.896
 11
125.366
 20
324.612
 21
324.467
  0
LINE
  8
0
 10
125.366
 11
125.772
 20
324.467
 21
324.19
  0
LINE
  8
0
 10
125.772
 11
126.079
 20
324.19
 21
323.805
  0
LINE
  8
0
 10
126.079
 11
126.259
 20
323.805
 21
323.347
  0
LINE
  8
0
 10
126.259
 11
126.295
 20
323.347
 21
322.857
  0
LINE
  8
0
 10
126.295
 11
126.186
 20
322.857
 21
322.377
  0
LINE
  8
0
 10
126.186
 11
125.94
 20
322.377
 21
321.951
  0
LINE
  8
0
 10
125.94
 11
125.579
 20
321.951
 21
321.617
  0
LINE
  8
0
 10
125.579
 11
125.136
 20
321.617
 21
321.403
  0
LINE
  8
0
 10
125.136
 11
124.65
 20
321.403
 21
321.33
  0
LINE
  8
0
 10
124.65
 11
124.164
 20
321.33
 21
321.403
  0
LINE
  8
0
 10
124.164
 11
123.721
 20
321.403
 21
321.617
  0
LINE
  8
0
 10
123.721
 11
123.36
 20
321.617
 21
321.951
  0
LINE
  8
0
 10
123.36
 11
123.114
 20
321.951
 21
322.377
  0
LINE
  8
0
 10
123.114
 11
123.005
 20
322.377
 21
322.857
  0
LINE
  8
0
 10
126.805
 11
126.841
 20
36.587
 21
37.077
  0
LINE
  8
0
 10
126.841
 11
127.021
 20
37.077
 21
37.535
  0
LINE
  8
0
 10
127.021
 11
127.328
 20
37.535
 21
37.92
  0
LINE
  8
0
 10
127.328
 11
127.734
 20
37.92
 21
38.197
  0
LINE
  8
0
 10
127.734
 11
128.204
 20
38.197
 21
38.342
  0
LINE
  8
0
 10
128.204
 11
128.696
 20
38.342
 21
38.342
  0
LINE
  8
0
 10
128.696
 11
129.166
 20
38.342
 21
38.197
  0
LINE
  8
0
 10
129.166
 11
129.572
 20
38.197
 21
37.92
  0
LINE
  8
0
 10
129.572
 11
129.879
 20
37.92
 21
37.535
  0
LINE
  8
0
 10
129.879
 11
130.059
 20
37.535
 21
37.077
  0
LINE
  8
0
 10
130.059
 11
130.095
 20
37.077
 21
36.587
  0
LINE
  8
0
 10
130.095
 11
129.986
 20
36.587
 21
36.107
  0
LINE
  8
0
 10
129.986
 11
129.74
 20
36.107
 21
35.681
  0
LINE
  8
0
 10
129.74
 11
129.379
 20
35.681
 21
35.347
  0
LINE
  8
0
 10
129.379
 11
128.936
 20
35.347
 21
35.133
  0
LINE
  8
0
 10
128.936
 11
128.45
 20
35.133
 21
35.06
  0
LINE
  8
0
 10
128.45
 11
127.964
 20
35.06
 21
35.133
  0
LINE
  8
0
 10
127.964
 11
127.521
 20
35.133
 21
35.347
  0
LINE
  8
0
 10
127.521
 11
127.16
 20
35.347
 21
35.681
  0
LINE
  8
0
 10
127.16
 11
126.914
 20
35.681
 21
36.107
  0
LINE
  8
0
 10
126.914
 11
126.805
 20
36.107
 21
36.587
  0
LINE
  8
0
 10
126.805
 11
126.841
 20
352.167
 21
352.657
  0
LINE
  8
0
 10
126.841
 11
127.021
 20
352.657
 21
353.115
  0
LINE
  8
0
 10
127.021
 11
127.328
 20
353.115
 21
353.5
  0
LINE
  8
0
 10
127.328
 11
127.734
 20
353.5
 21
353.777
  0
LINE
  8
0
 10
127.734
 11
128.204
 20
353.777
 21
353.922
  0
LINE
  8
0
 10
128.204
 11
128.696
 20
353.922
 21
353.922
  0
LINE
  8
0
 10
128.696
 11
129.166
 20
353.922
 21
353.777
  0
LINE
  8
0
 10
129.166
 11
129.572
 20
353.777
 21
353.5
  0
LINE
  8
0
 10
129.572
 11
129.879
 20
353.5
 21
353.115
  0
LINE
  8
0
 10
129.879
 11
130.059
 20
353.115
 21
352.657
  0
LINE
  8
0
 10
130.059
 11
130.095
 20
352.657
 21
352.167
  0
LINE
  8
0
 10
130.095
 11
129.986
 20
352.167
 21
351.687
  0
LINE
  8
0
 10
129.986
 11
129.74
 20
351.687
 21
351.261
  0
LINE
  8
0
 10
129.74
 11
129.379
 20
351.261
 21
350.927
  0
LINE
  8
0
 10
129.379
 11
128.936
 20
350.927
 21
350.713
  0
LINE
  8
0
 10
128.936
 11
128.45
 20
350.713
 21
350.64
  0
LINE
  8
0
 10
128.45
 11
127.964
 20
350.64
 21
350.713
  0
LINE
  8
0
 10
127.964
 11
127.521
 20
350.713
 21
350.927
  0
LINE
  8
0
 10
127.521
 11
127.16
 20
350.927
 21
351.261
  0
LINE
  8
0
 10
127.16
 11
126.914
 20
351.261
 21
351.687
  0
LINE
  8
0
 10
126.914
 11
126.805
 20
351.687
 21
352.167
  0
LINE
  8
0
 10
140.618
 11
140.618
 20
60.754
 21
61.246
  0
LINE
  8
0
 10
140.618
 11
140.763
 20
61.246
 21
61.716
  0
LINE
  8
0
 10
140.763
 11
141.04
 20
61.716
 21
62.122
  0
LINE
  8
0
 10
141.04
 11
141.425
 20
62.122
 21
62.429
  0
LINE
  8
0
 10
141.425
 11
141.883
 20
62.429
 21
62.609
  0
LINE
  8
0
 10
141.883
 11
142.373
 20
62.609
 21
62.645
  0
LINE
  8
0
 10
142.373
 11
142.853
 20
62.645
 21
62.536
  0
LINE
  8
0
 10
142.853
 11
143.279
 20
62.536
 21
62.29
  0
LINE
  8
0
 10
143.279
 11
143.613
 20
62.29
 21
61.929
  0
LINE
  8
0
 10
143.613
 11
143.827
 20
61.929
 21
61.486
  0
LINE
  8
0
 10
143.827
 11
143.9
 20
61.486
 21
61
  0
LINE
  8
0
 10
143.9
 11
143.827
 20
61
 21
60.514
  0
LINE
  8
0
 10
143.827
 11
143.613
 20
60.514
 21
60.071
  0
LINE
  8
0
 10
143.613
 11
143.279
 20
60.071
 21
59.71
  0
LINE
  8
0
 10
143.279
 11
142.853
 20
59.71
 21
59.464
  0
LINE
  8
0
 10
142.853
 11
142.373
 20
59.464
 21
59.355
  0
LINE
  8
0
 10
142.373
 11
141.883
 20
59.355
 21
59.391
  0
LINE
  8
0
 10
141.883
 11
141.425
 20
59.391
 21
59.571
  0
LINE
  8
0
 10
141.425
 11
141.04
 20
59.571
 21
59.878
  0
LINE
  8
0
 10
141.04
 11
140.763
 20
59.878
 21
60.284
  0
LINE
  8
0
 10
140.763
 11
140.618
 20
60.284
 21
60.754
  0
LINE
  8
0
 10
150.7
 11
150.773
 20
8.2
 21
8.686
  0
LINE
  8
0
 10
150.773
 11
150.987
 20
8.686
 21
9.129
  0
LINE
  8
0
 10
150.987
 11
151.321
 20
9.129
 21
9.49
  0
LINE
  8
0
 10
151.321
 11
151.747
 20
9.49
 21
9.736
  0
LINE
  8
0
 10
151.747
 11
152.227
 20
9.736
 21
9.845
  0
LINE
  8
0
 10
152.227
 11
152.717
 20
9.845
 21
9.809
  0
LINE
  8
0
 10
152.717
 11
153.175
 20
9.809
 21
9.629
  0
LINE
  8
0
 10
153.175
 11
153.56
 20
9.629
 21
9.322
  0
LINE
  8
0
 10
153.56
 11
153.837
 20
9.322
 21
8.916
  0
LINE
  8
0
 10
153.837
 11
153.982
 20
8.916
 21
8.446
  0
LINE
  8
0
 10
153.982
 11
153.982
 20
8.446
 21
7.954
  0
LINE
  8
0
 10
153.982
 11
153.837
 20
7.954
 21
7.484
  0
LINE
  8
0
 10
153.837
 11
153.56
 20
7.484
 21
7.078
  0
LINE
  8
0
 10
153.56
 11
153.175
 20
7.078
 21
6.771
  0
LINE
  8
0
 10
153.175
 11
152.717
 20
6.771
 21
6.591
  0
LINE
  8
0
 10
152.717
 11
152.227
 20
6.591
 21
6.555
  0
LINE
  8
0
 10
152.227
 11
151.747
 20
6.555
 21
6.664
  0
LINE
  8
0
 10
151.747
 11
151.321
 20
6.664
 21
6.91
  0
LINE
  8
0
 10
151.321
 11
150.987
 20
6.91
 21
7.271
  0
LINE
  8
0
 10
150.987
 11
150.773
 20
7.271
 21
7.714
  0
LINE
  8
0
 10
150.773
 11
150.7
 20
7.714
 21
8.2
  0
LINE
  8
0
 10
155.605
 11
155.641
 20
380.377
 21
380.867
  0
LINE
  8
0
 10
155.641
 11
155.821
 20
380.867
 21
381.325
  0
LINE
  8
0
 10
155.821
 11
156.128
 20
381.325
 21
381.71
  0
LINE
  8
0
 10
156.128
 11
156.534
 20
381.71
 21
381.987
  0
LINE
  8
0
 10
156.534
 11
157.004
 20
381.987
 21
382.132
  0
LINE
  8
0
 10
157.004
 11
157.496
 20
382.132
 21
382.132
  0
LINE
  8
0
 10
157.496
 11
157.966
 20
382.132
 21
381.987
  0
LINE
  8
0
 10
157.966
 11
158.372
 20
381.987
 21
381.71
  0
LINE
  8
0
 10
158.372
 11
158.679
 20
381.71
 21
381.325
  0
LINE
  8
0
 10
158.679
 11
158.859
 20
381.325
 21
380.867
  0
LINE
  8
0
 10
158.859
 11
158.895
 20
380.867
 21
380.377
  0
LINE
  8
0
 10
158.895
 11
158.786
 20
380.377
 21
379.897
  0
LINE
  8
0
 10
158.786
 11
158.54
 20
379.897
 21
379.471
  0
LINE
  8
0
 10
158.54
 11
158.179
 20
379.471
 21
379.137
  0
LINE
  8
0
 10
158.179
 11
157.736
 20
379.137
 21
378.923
  0
LINE
  8
0
 10
157.736
 11
157.25
 20
378.923
 21
378.85
  0
LINE
  8
0
 10
157.25
 11
156.764
 20
378.85
 21
378.923
  0
LINE
  8
0
 10
156.764
 11
156.321
 20
378.923
 21
379.137
  0
LINE
  8
0
 10
156.321
 11
155.96
 20
379.137
 21
379.471
  0
LINE
  8
0
 10
155.96
 11
155.714
 20
379.471
 21
379.897
  0
LINE
  8
0
 10
155.714
 11
155.605
 20
379.897
 21
380.377
  0
LINE
  8
0
 10
158.87
 11
158.918
 20
20.9
 21
21.388
  0
LINE
  8
0
 10
158.918
 11
159.06
 20
21.388
 21
21.857
  0
LINE
  8
0
 10
159.06
 11
159.291
 20
21.857
 21
22.289
  0
LINE
  8
0
 10
159.291
 11
159.602
 20
22.289
 21
22.668
  0
LINE
  8
0
 10
159.602
 11
159.981
 20
22.668
 21
22.979
  0
LINE
  8
0
 10
159.981
 11
160.413
 20
22.979
 21
23.21
  0
LINE
  8
0
 10
160.413
 11
160.882
 20
23.21
 21
23.352
  0
LINE
  8
0
 10
160.882
 11
161.37
 20
23.352
 21
23.4
  0
LINE
  8
0
 10
161.37
 11
161.858
 20
23.4
 21
23.352
  0
LINE
  8
0
 10
161.858
 11
162.327
 20
23.352
 21
23.21
  0
LINE
  8
0
 10
162.327
 11
162.759
 20
23.21
 21
22.979
  0
LINE
  8
0
 10
162.759
 11
163.138
 20
22.979
 21
22.668
  0
LINE
  8
0
 10
163.138
 11
163.449
 20
22.668
 21
22.289
  0
LINE
  8
0
 10
163.449
 11
163.68
 20
22.289
 21
21.857
  0
LINE
  8
0
 10
163.68
 11
163.822
 20
21.857
 21
21.388
  0
LINE
  8
0
 10
163.822
 11
163.87
 20
21.388
 21
20.9
  0
LINE
  8
0
 10
163.87
 11
163.822
 20
20.9
 21
20.412
  0
LINE
  8
0
 10
163.822
 11
163.68
 20
20.412
 21
19.943
  0
LINE
  8
0
 10
163.68
 11
163.449
 20
19.943
 21
19.511
  0
LINE
  8
0
 10
163.449
 11
163.138
 20
19.511
 21
19.132
  0
LINE
  8
0
 10
163.138
 11
162.759
 20
19.132
 21
18.821
  0
LINE
  8
0
 10
162.759
 11
162.327
 20
18.821
 21
18.59
  0
LINE
  8
0
 10
162.327
 11
161.858
 20
18.59
 21
18.448
  0
LINE
  8
0
 10
161.858
 11
161.37
 20
18.448
 21
18.4
  0
LINE
  8
0
 10
161.37
 11
160.882
 20
18.4
 21
18.448
  0
LINE
  8
0
 10
160.882
 11
160.413
 20
18.448
 21
18.59
  0
LINE
  8
0
 10
160.413
 11
159.981
 20
18.59
 21
18.821
  0
LINE
  8
0
 10
159.981
 11
159.602
 20
18.821
 21
19.132
  0
LINE
  8
0
 10
159.602
 11
159.291
 20
19.132
 21
19.511
  0
LINE
  8
0
 10
159.291
 11
159.06
 20
19.511
 21
19.943
  0
LINE
  8
0
 10
159.06
 11
158.918
 20
19.943
 21
20.412
  0
LINE
  8
0
 10
158.918
 11
158.87
 20
20.412
 21
20.9
  0
LINE
  8
0
 10
171.92
 11
171.993
 20
8.2
 21
8.686
  0
LINE
  8
0
 10
171.993
 11
172.207
 20
8.686
 21
9.129
  0
LINE
  8
0
 10
172.207
 11
172.541
 20
9.129
 21
9.49
  0
LINE
  8
0
 10
172.541
 11
172.967
 20
9.49
 21
9.736
  0
LINE
  8
0
 10
172.967
 11
173.447
 20
9.736
 21
9.845
  0
LINE
  8
0
 10
173.447
 11
173.937
 20
9.845
 21
9.809
  0
LINE
  8
0
 10
173.937
 11
174.395
 20
9.809
 21
9.629
  0
LINE
  8
0
 10
174.395
 11
174.78
 20
9.629
 21
9.322
  0
LINE
  8
0
 10
174.78
 11
175.057
 20
9.322
 21
8.916
  0
LINE
  8
0
 10
175.057
 11
175.202
 20
8.916
 21
8.446
  0
LINE
  8
0
 10
175.202
 11
175.202
 20
8.446
 21
7.954
  0
LINE
  8
0
 10
175.202
 11
175.057
 20
7.954
 21
7.484
  0
LINE
  8
0
 10
175.057
 11
174.78
 20
7.484
 21
7.078
  0
LINE
  8
0
 10
174.78
 11
174.395
 20
7.078
 21
6.771
  0
LINE
  8
0
 10
174.395
 11
173.937
 20
6.771
 21
6.591
  0
LINE
  8
0
 10
173.937
 11
173.447
 20
6.591
 21
6.555
  0
LINE
  8
0
 10
173.447
 11
172.967
 20
6.555
 21
6.664
  0
LINE
  8
0
 10
172.967
 11
172.541
 20
6.664
 21
6.91
  0
LINE
  8
0
 10
172.541
 11
172.207
 20
6.91
 21
7.271
  0
LINE
  8
0
 10
172.207
 11
171.993
 20
7.271
 21
7.714
  0
LINE
  8
0
 10
171.993
 11
171.92
 20
7.714
 21
8.2
  0
LINE
  8
0
 10
172.618
 11
172.618
 20
60.754
 21
61.246
  0
LINE
  8
0
 10
172.618
 11
172.763
 20
61.246
 21
61.716
  0
LINE
  8
0
 10
172.763
 11
173.04
 20
61.716
 21
62.122
  0
LINE
  8
0
 10
173.04
 11
173.425
 20
62.122
 21
62.429
  0
LINE
  8
0
 10
173.425
 11
173.883
 20
62.429
 21
62.609
  0
LINE
  8
0
 10
173.883
 11
174.373
 20
62.609
 21
62.645
  0
LINE
  8
0
 10
174.373
 11
174.853
 20
62.645
 21
62.536
  0
LINE
  8
0
 10
174.853
 11
175.279
 20
62.536
 21
62.29
  0
LINE
  8
0
 10
175.279
 11
175.613
 20
62.29
 21
61.929
  0
LINE
  8
0
 10
175.613
 11
175.827
 20
61.929
 21
61.486
  0
LINE
  8
0
 10
175.827
 11
175.9
 20
61.486
 21
61
  0
LINE
  8
0
 10
175.9
 11
175.827
 20
61
 21
60.514
  0
LINE
  8
0
 10
175.827
 11
175.613
 20
60.514
 21
60.071
  0
LINE
  8
0
 10
175.613
 11
175.279
 20
60.071
 21
59.71
  0
LINE
  8
0
 10
175.279
 11
174.853
 20
59.71
 21
59.464
  0
LINE
  8
0
 10
174.853
 11
174.373
 20
59.464
 21
59.355
  0
LINE
  8
0
 10
174.373
 11
173.883
 20
59.355
 21
59.391
  0
LINE
  8
0
 10
173.883
 11
173.425
 20
59.391
 21
59.571
  0
LINE
  8
0
 10
173.425
 11
173.04
 20
59.571
 21
59.878
  0
LINE
  8
0
 10
173.04
 11
172.763
 20
59.878
 21
60.284
  0
LINE
  8
0
 10
172.763
 11
172.618
 20
60.284
 21
60.754
  0
LINE
  8
0
 10
182.718
 11
182.718
 20
375.054
 21
375.546
  0
LINE
  8
0
 10
182.718
 11
182.863
 20
375.546
 21
376.016
  0
LINE
  8
0
 10
182.863
 11
183.14
 20
376.016
 21
376.422
  0
LINE
  8
0
 10
183.14
 11
183.525
 20
376.422
 21
376.729
  0
LINE
  8
0
 10
183.525
 11
183.983
 20
376.729
 21
376.909
  0
LINE
  8
0
 10
183.983
 11
184.473
 20
376.909
 21
376.945
  0
LINE
  8
0
 10
184.473
 11
184.953
 20
376.945
 21
376.836
  0
LINE
  8
0
 10
184.953
 11
185.379
 20
376.836
 21
376.59
  0
LINE
  8
0
 10
185.379
 11
185.713
 20
376.59
 21
376.229
  0
LINE
  8
0
 10
185.713
 11
185.927
 20
376.229
 21
375.786
  0
LINE
  8
0
 10
185.927
 11
186
 20
375.786
 21
375.3
  0
LINE
  8
0
 10
186
 11
185.927
 20
375.3
 21
374.814
  0
LINE
  8
0
 10
185.927
 11
185.713
 20
374.814
 21
374.371
  0
LINE
  8
0
 10
185.713
 11
185.379
 20
374.371
 21
374.01
  0
LINE
  8
0
 10
185.379
 11
184.953
 20
374.01
 21
373.764
  0
LINE
  8
0
 10
184.953
 11
184.473
 20
373.764
 21
373.655
  0
LINE
  8
0
 10
184.473
 11
183.983
 20
373.655
 21
373.691
  0
LINE
  8
0
 10
183.983
 11
183.525
 20
373.691
 21
373.871
  0
LINE
  8
0
 10
183.525
 11
183.14
 20
373.871
 21
374.178
  0
LINE
  8
0
 10
183.14
 11
182.863
 20
374.178
 21
374.584
  0
LINE
  8
0
 10
182.863
 11
182.718
 20
374.584
 21
375.054
  0
LINE
  8
0
 10
202.68
 11
202.753
 20
8.2
 21
8.686
  0
LINE
  8
0
 10
202.753
 11
202.967
 20
8.686
 21
9.129
  0
LINE
  8
0
 10
202.967
 11
203.301
 20
9.129
 21
9.49
  0
LINE
  8
0
 10
203.301
 11
203.727
 20
9.49
 21
9.736
  0
LINE
  8
0
 10
203.727
 11
204.207
 20
9.736
 21
9.845
  0
LINE
  8
0
 10
204.207
 11
204.697
 20
9.845
 21
9.809
  0
LINE
  8
0
 10
204.697
 11
205.155
 20
9.809
 21
9.629
  0
LINE
  8
0
 10
205.155
 11
205.54
 20
9.629
 21
9.322
  0
LINE
  8
0
 10
205.54
 11
205.817
 20
9.322
 21
8.916
  0
LINE
  8
0
 10
205.817
 11
205.962
 20
8.916
 21
8.446
  0
LINE
  8
0
 10
205.962
 11
205.962
 20
8.446
 21
7.954
  0
LINE
  8
0
 10
205.962
 11
205.817
 20
7.954
 21
7.484
  0
LINE
  8
0
 10
205.817
 11
205.54
 20
7.484
 21
7.078
  0
LINE
  8
0
 10
205.54
 11
205.155
 20
7.078
 21
6.771
  0
LINE
  8
0
 10
205.155
 11
204.697
 20
6.771
 21
6.591
  0
LINE
  8
0
 10
204.697
 11
204.207
 20
6.591
 21
6.555
  0
LINE
  8
0
 10
204.207
 11
203.727
 20
6.555
 21
6.664
  0
LINE
  8
0
 10
203.727
 11
203.301
 20
6.664
 21
6.91
  0
LINE
  8
0
 10
203.301
 11
202.967
 20
6.91
 21
7.271
  0
LINE
  8
0
 10
202.967
 11
202.753
 20
7.271
 21
7.714
  0
LINE
  8
0
 10
202.753
 11
202.68
 20
7.714
 21
8.2
  0
LINE
  8
0
 10
217.518
 11
217.518
 20
375.054
 21
375.546
  0
LINE
  8
0
 10
217.518
 11
217.663
 20
375.546
 21
376.016
  0
LINE
  8
0
 10
217.663
 11
217.94
 20
376.016
 21
376.422
  0
LINE
  8
0
 10
217.94
 11
218.325
 20
376.422
 21
376.729
  0
LINE
  8
0
 10
218.325
 11
218.783
 20
376.729
 21
376.909
  0
LINE
  8
0
 10
218.783
 11
219.273
 20
376.909
 21
376.945
  0
LINE
  8
0
 10
219.273
 11
219.753
 20
376.945
 21
376.836
  0
LINE
  8
0
 10
219.753
 11
220.179
 20
376.836
 21
376.59
  0
LINE
  8
0
 10
220.179
 11
220.513
 20
376.59
 21
376.229
  0
LINE
  8
0
 10
220.513
 11
220.727
 20
376.229
 21
375.786
  0
LINE
  8
0
 10
220.727
 11
220.8
 20
375.786
 21
375.3
  0
LINE
  8
0
 10
220.8
 11
220.727
 20
375.3
 21
374.814
  0
LINE
  8
0
 10
220.727
 11
220.513
 20
374.814
 21
374.371
  0
LINE
  8
0
 10
220.513
 11
220.179
 20
374.371
 21
374.01
  0
LINE
  8
0
 10
220.179
 11
219.753
 20
374.01
 21
373.764
  0
LINE
  8
0
 10
219.753
 11
219.273
 20
373.764
 21
373.655
  0
LINE
  8
0
 10
219.273
 11
218.783
 20
373.655
 21
373.691
  0
LINE
  8
0
 10
218.783
 11
218.325
 20
373.691
 21
373.871
  0
LINE
  8
0
 10
218.325
 11
217.94
 20
373.871
 21
374.178
  0
LINE
  8
0
 10
217.94
 11
217.663
 20
374.178
 21
374.584
  0
LINE
  8
0
 10
217.663
 11
217.518
 20
374.584
 21
375.054
  0
LINE
  8
0
 10
222.505
 11
222.614
 20
31.423
 21
31.903
  0
LINE
  8
0
 10
222.614
 11
222.86
 20
31.903
 21
32.329
  0
LINE
  8
0
 10
222.86
 11
223.221
 20
32.329
 21
32.663
  0
LINE
  8
0
 10
223.221
 11
223.664
 20
32.663
 21
32.877
  0
LINE
  8
0
 10
223.664
 11
224.15
 20
32.877
 21
32.95
  0
LINE
  8
0
 10
224.15
 11
224.636
 20
32.95
 21
32.877
  0
LINE
  8
0
 10
224.636
 11
225.079
 20
32.877
 21
32.663
  0
LINE
  8
0
 10
225.079
 11
225.44
 20
32.663
 21
32.329
  0
LINE
  8
0
 10
225.44
 11
225.686
 20
32.329
 21
31.903
  0
LINE
  8
0
 10
225.686
 11
225.795
 20
31.903
 21
31.423
  0
LINE
  8
0
 10
225.795
 11
225.759
 20
31.423
 21
30.933
  0
LINE
  8
0
 10
225.759
 11
225.579
 20
30.933
 21
30.475
  0
LINE
  8
0
 10
225.579
 11
225.272
 20
30.475
 21
30.09
  0
LINE
  8
0
 10
225.272
 11
224.866
 20
30.09
 21
29.813
  0
LINE
  8
0
 10
224.866
 11
224.396
 20
29.813
 21
29.668
  0
LINE
  8
0
 10
224.396
 11
223.904
 20
29.668
 21
29.668
  0
LINE
  8
0
 10
223.904
 11
223.434
 20
29.668
 21
29.813
  0
LINE
  8
0
 10
223.434
 11
223.028
 20
29.813
 21
30.09
  0
LINE
  8
0
 10
223.028
 11
222.721
 20
30.09
 21
30.475
  0
LINE
  8
0
 10
222.721
 11
222.541
 20
30.475
 21
30.933
  0
LINE
  8
0
 10
222.541
 11
222.505
 20
30.933
 21
31.423
  0
LINE
  8
0
 10
223.9
 11
223.973
 20
8.2
 21
8.686
  0
LINE
  8
0
 10
223.973
 11
224.187
 20
8.686
 21
9.129
  0
LINE
  8
0
 10
224.187
 11
224.521
 20
9.129
 21
9.49
  0
LINE
  8
0
 10
224.521
 11
224.947
 20
9.49
 21
9.736
  0
LINE
  8
0
 10
224.947
 11
225.427
 20
9.736
 21
9.845
  0
LINE
  8
0
 10
225.427
 11
225.917
 20
9.845
 21
9.809
  0
LINE
  8
0
 10
225.917
 11
226.375
 20
9.809
 21
9.629
  0
LINE
  8
0
 10
226.375
 11
226.76
 20
9.629
 21
9.322
  0
LINE
  8
0
 10
226.76
 11
227.037
 20
9.322
 21
8.916
  0
LINE
  8
0
 10
227.037
 11
227.182
 20
8.916
 21
8.446
  0
LINE
  8
0
 10
227.182
 11
227.182
 20
8.446
 21
7.954
  0
LINE
  8
0
 10
227.182
 11
227.037
 20
7.954
 21
7.484
  0
LINE
  8
0
 10
227.037
 11
226.76
 20
7.484
 21
7.078
  0
LINE
  8
0
 10
226.76
 11
226.375
 20
7.078
 21
6.771
  0
LINE
  8
0
 10
226.375
 11
225.917
 20
6.771
 21
6.591
  0
LINE
  8
0
 10
225.917
 11
225.427
 20
6.591
 21
6.555
  0
LINE
  8
0
 10
225.427
 11
224.947
 20
6.555
 21
6.664
  0
LINE
  8
0
 10
224.947
 11
224.521
 20
6.664
 21
6.91
  0
LINE
  8
0
 10
224.521
 11
224.187
 20
6.91
 21
7.271
  0
LINE
  8
0
 10
224.187
 11
223.973
 20
7.271
 21
7.714
  0
LINE
  8
0
 10
223.973
 11
223.9
 20
7.714
 21
8.2
  0
ENDSEC
  0
SECTION
  2
OBJECTS
  0
DICTIONARY
  0
ENDSEC
  0
EOF
