  0
SECTION
  2
BLOCKS
  0
ENDSEC
  0
SECTION
  2
ENTITIES
  0
LINE
  8
0
 10
0
 11
0
 20
0
 21
164.5
  0
LINE
  8
0
 10
0
 11
364
 20
164.5
 21
164.5
  0
LINE
  8
0
 10
364
 11
366.179
 20
164.5
 21
164.405
  0
LINE
  8
0
 10
366.179
 11
368.341
 20
164.405
 21
164.12
  0
LINE
  8
0
 10
368.341
 11
370.47
 20
164.12
 21
163.648
  0
LINE
  8
0
 10
370.47
 11
372.551
 20
163.648
 21
162.992
  0
LINE
  8
0
 10
372.551
 11
374.565
 20
162.992
 21
162.158
  0
LINE
  8
0
 10
374.565
 11
376.5
 20
162.158
 21
161.151
  0
LINE
  8
0
 10
376.5
 11
378.339
 20
161.151
 21
159.979
  0
LINE
  8
0
 10
378.339
 11
380.07
 20
159.979
 21
158.651
  0
LINE
  8
0
 10
380.07
 11
381.678
 20
158.651
 21
157.178
  0
LINE
  8
0
 10
381.678
 11
383.151
 20
157.178
 21
155.57
  0
LINE
  8
0
 10
383.151
 11
384.479
 20
155.57
 21
153.839
  0
LINE
  8
0
 10
384.479
 11
385.651
 20
153.839
 21
152
  0
LINE
  8
0
 10
385.651
 11
386.658
 20
152
 21
150.065
  0
LINE
  8
0
 10
386.658
 11
387.492
 20
150.065
 21
148.051
  0
LINE
  8
0
 10
387.492
 11
388.148
 20
148.051
 21
145.97
  0
LINE
  8
0
 10
388.148
 11
388.62
 20
145.97
 21
143.841
  0
LINE
  8
0
 10
388.62
 11
388.905
 20
143.841
 21
141.679
  0
LINE
  8
0
 10
388.905
 11
389
 20
141.679
 21
139.5
  0
LINE
  8
0
 10
389
 11
389
 20
139.5
 21
0
  0
LINE
  8
0
 10
389
 11
0
 20
0
 21
0
  0
LINE
  8
0
 10
6.555
 11
6.664
 20
133.703
 21
134.183
  0
LINE
  8
0
 10
6.664
 11
6.91
 20
134.183
 21
134.609
  0
LINE
  8
0
 10
6.91
 11
7.271
 20
134.609
 21
134.943
  0
LINE
  8
0
 10
7.271
 11
7.714
 20
134.943
 21
135.157
  0
LINE
  8
0
 10
7.714
 11
8.2
 20
135.157
 21
135.23
  0
LINE
  8
0
 10
8.2
 11
8.686
 20
135.23
 21
135.157
  0
LINE
  8
0
 10
8.686
 11
9.129
 20
135.157
 21
134.943
  0
LINE
  8
0
 10
9.129
 11
9.49
 20
134.943
 21
134.609
  0
LINE
  8
0
 10
9.49
 11
9.736
 20
134.609
 21
134.183
  0
LINE
  8
0
 10
9.736
 11
9.845
 20
134.183
 21
133.703
  0
LINE
  8
0
 10
9.845
 11
9.809
 20
133.703
 21
133.213
  0
LINE
  8
0
 10
9.809
 11
9.629
 20
133.213
 21
132.755
  0
LINE
  8
0
 10
9.629
 11
9.322
 20
132.755
 21
132.37
  0
LINE
  8
0
 10
9.322
 11
8.916
 20
132.37
 21
132.093
  0
LINE
  8
0
 10
8.916
 11
8.446
 20
132.093
 21
131.948
  0
LINE
  8
0
 10
8.446
 11
7.954
 20
131.948
 21
131.948
  0
LINE
  8
0
 10
7.954
 11
7.484
 20
131.948
 21
132.093
  0
LINE
  8
0
 10
7.484
 11
7.078
 20
132.093
 21
132.37
  0
LINE
  8
0
 10
7.078
 11
6.771
 20
132.37
 21
132.755
  0
LINE
  8
0
 10
6.771
 11
6.591
 20
132.755
 21
133.213
  0
LINE
  8
0
 10
6.591
 11
6.555
 20
133.213
 21
133.703
  0
LINE
  8
0
 10
6.555
 11
6.664
 20
154.923
 21
155.403
  0
LINE
  8
0
 10
6.664
 11
6.91
 20
155.403
 21
155.829
  0
LINE
  8
0
 10
6.91
 11
7.271
 20
155.829
 21
156.163
  0
LINE
  8
0
 10
7.271
 11
7.714
 20
156.163
 21
156.377
  0
LINE
  8
0
 10
7.714
 11
8.2
 20
156.377
 21
156.45
  0
LINE
  8
0
 10
8.2
 11
8.686
 20
156.45
 21
156.377
  0
LINE
  8
0
 10
8.686
 11
9.129
 20
156.377
 21
156.163
  0
LINE
  8
0
 10
9.129
 11
9.49
 20
156.163
 21
155.829
  0
LINE
  8
0
 10
9.49
 11
9.736
 20
155.829
 21
155.403
  0
LINE
  8
0
 10
9.736
 11
9.845
 20
155.403
 21
154.923
  0
LINE
  8
0
 10
9.845
 11
9.809
 20
154.923
 21
154.433
  0
LINE
  8
0
 10
9.809
 11
9.629
 20
154.433
 21
153.975
  0
LINE
  8
0
 10
9.629
 11
9.322
 20
153.975
 21
153.59
  0
LINE
  8
0
 10
9.322
 11
8.916
 20
153.59
 21
153.313
  0
LINE
  8
0
 10
8.916
 11
8.446
 20
153.313
 21
153.168
  0
LINE
  8
0
 10
8.446
 11
7.954
 20
153.168
 21
153.168
  0
LINE
  8
0
 10
7.954
 11
7.484
 20
153.168
 21
153.313
  0
LINE
  8
0
 10
7.484
 11
7.078
 20
153.313
 21
153.59
  0
LINE
  8
0
 10
7.078
 11
6.771
 20
153.59
 21
153.975
  0
LINE
  8
0
 10
6.771
 11
6.591
 20
153.975
 21
154.433
  0
LINE
  8
0
 10
6.591
 11
6.555
 20
154.433
 21
154.923
  0
LINE
  8
0
 10
24.45
 11
24.523
 20
8.2
 21
8.686
  0
LINE
  8
0
 10
24.523
 11
24.737
 20
8.686
 21
9.129
  0
LINE
  8
0
 10
24.737
 11
25.071
 20
9.129
 21
9.49
  0
LINE
  8
0
 10
25.071
 11
25.497
 20
9.49
 21
9.736
  0
LINE
  8
0
 10
25.497
 11
25.977
 20
9.736
 21
9.845
  0
LINE
  8
0
 10
25.977
 11
26.467
 20
9.845
 21
9.809
  0
LINE
  8
0
 10
26.467
 11
26.925
 20
9.809
 21
9.629
  0
LINE
  8
0
 10
26.925
 11
27.31
 20
9.629
 21
9.322
  0
LINE
  8
0
 10
27.31
 11
27.587
 20
9.322
 21
8.916
  0
LINE
  8
0
 10
27.587
 11
27.732
 20
8.916
 21
8.446
  0
LINE
  8
0
 10
27.732
 11
27.732
 20
8.446
 21
7.954
  0
LINE
  8
0
 10
27.732
 11
27.587
 20
7.954
 21
7.484
  0
LINE
  8
0
 10
27.587
 11
27.31
 20
7.484
 21
7.078
  0
LINE
  8
0
 10
27.31
 11
26.925
 20
7.078
 21
6.771
  0
LINE
  8
0
 10
26.925
 11
26.467
 20
6.771
 21
6.591
  0
LINE
  8
0
 10
26.467
 11
25.977
 20
6.591
 21
6.555
  0
LINE
  8
0
 10
25.977
 11
25.497
 20
6.555
 21
6.664
  0
LINE
  8
0
 10
25.497
 11
25.071
 20
6.664
 21
6.91
  0
LINE
  8
0
 10
25.071
 11
24.737
 20
6.91
 21
7.271
  0
LINE
  8
0
 10
24.737
 11
24.523
 20
7.271
 21
7.714
  0
LINE
  8
0
 10
24.523
 11
24.45
 20
7.714
 21
8.2
  0
LINE
  8
0
 10
45.67
 11
45.743
 20
8.2
 21
8.686
  0
LINE
  8
0
 10
45.743
 11
45.957
 20
8.686
 21
9.129
  0
LINE
  8
0
 10
45.957
 11
46.291
 20
9.129
 21
9.49
  0
LINE
  8
0
 10
46.291
 11
46.717
 20
9.49
 21
9.736
  0
LINE
  8
0
 10
46.717
 11
47.197
 20
9.736
 21
9.845
  0
LINE
  8
0
 10
47.197
 11
47.687
 20
9.845
 21
9.809
  0
LINE
  8
0
 10
47.687
 11
48.145
 20
9.809
 21
9.629
  0
LINE
  8
0
 10
48.145
 11
48.53
 20
9.629
 21
9.322
  0
LINE
  8
0
 10
48.53
 11
48.807
 20
9.322
 21
8.916
  0
LINE
  8
0
 10
48.807
 11
48.952
 20
8.916
 21
8.446
  0
LINE
  8
0
 10
48.952
 11
48.952
 20
8.446
 21
7.954
  0
LINE
  8
0
 10
48.952
 11
48.807
 20
7.954
 21
7.484
  0
LINE
  8
0
 10
48.807
 11
48.53
 20
7.484
 21
7.078
  0
LINE
  8
0
 10
48.53
 11
48.145
 20
7.078
 21
6.771
  0
LINE
  8
0
 10
48.145
 11
47.687
 20
6.771
 21
6.591
  0
LINE
  8
0
 10
47.687
 11
47.197
 20
6.591
 21
6.555
  0
LINE
  8
0
 10
47.197
 11
46.717
 20
6.555
 21
6.664
  0
LINE
  8
0
 10
46.717
 11
46.291
 20
6.664
 21
6.91
  0
LINE
  8
0
 10
46.291
 11
45.957
 20
6.91
 21
7.271
  0
LINE
  8
0
 10
45.957
 11
45.743
 20
7.271
 21
7.714
  0
LINE
  8
0
 10
45.743
 11
45.67
 20
7.714
 21
8.2
  0
LINE
  8
0
 10
51.05
 11
51.105
 20
22.65
 21
23.14
  0
LINE
  8
0
 10
51.105
 11
51.268
 20
23.14
 21
23.605
  0
LINE
  8
0
 10
51.268
 11
51.53
 20
23.605
 21
24.022
  0
LINE
  8
0
 10
51.53
 11
51.878
 20
24.022
 21
24.37
  0
LINE
  8
0
 10
51.878
 11
52.295
 20
24.37
 21
24.632
  0
LINE
  8
0
 10
52.295
 11
52.76
 20
24.632
 21
24.795
  0
LINE
  8
0
 10
52.76
 11
53.25
 20
24.795
 21
24.85
  0
LINE
  8
0
 10
53.25
 11
53.74
 20
24.85
 21
24.795
  0
LINE
  8
0
 10
53.74
 11
54.205
 20
24.795
 21
24.632
  0
LINE
  8
0
 10
54.205
 11
54.622
 20
24.632
 21
24.37
  0
LINE
  8
0
 10
54.622
 11
54.97
 20
24.37
 21
24.022
  0
LINE
  8
0
 10
54.97
 11
55.232
 20
24.022
 21
23.605
  0
LINE
  8
0
 10
55.232
 11
55.395
 20
23.605
 21
23.14
  0
LINE
  8
0
 10
55.395
 11
55.45
 20
23.14
 21
22.65
  0
LINE
  8
0
 10
55.45
 11
55.395
 20
22.65
 21
22.16
  0
LINE
  8
0
 10
55.395
 11
55.232
 20
22.16
 21
21.695
  0
LINE
  8
0
 10
55.232
 11
54.97
 20
21.695
 21
21.278
  0
LINE
  8
0
 10
54.97
 11
54.622
 20
21.278
 21
20.93
  0
LINE
  8
0
 10
54.622
 11
54.205
 20
20.93
 21
20.668
  0
LINE
  8
0
 10
54.205
 11
53.74
 20
20.668
 21
20.505
  0
LINE
  8
0
 10
53.74
 11
53.25
 20
20.505
 21
20.45
  0
LINE
  8
0
 10
53.25
 11
52.76
 20
20.45
 21
20.505
  0
LINE
  8
0
 10
52.76
 11
52.295
 20
20.505
 21
20.668
  0
LINE
  8
0
 10
52.295
 11
51.878
 20
20.668
 21
20.93
  0
LINE
  8
0
 10
51.878
 11
51.53
 20
20.93
 21
21.278
  0
LINE
  8
0
 10
51.53
 11
51.268
 20
21.278
 21
21.695
  0
LINE
  8
0
 10
51.268
 11
51.105
 20
21.695
 21
22.16
  0
LINE
  8
0
 10
51.105
 11
51.05
 20
22.16
 21
22.65
  0
LINE
  8
0
 10
51.05
 11
51.105
 20
94.15
 21
94.64
  0
LINE
  8
0
 10
51.105
 11
51.268
 20
94.64
 21
95.105
  0
LINE
  8
0
 10
51.268
 11
51.53
 20
95.105
 21
95.522
  0
LINE
  8
0
 10
51.53
 11
51.878
 20
95.522
 21
95.87
  0
LINE
  8
0
 10
51.878
 11
52.295
 20
95.87
 21
96.132
  0
LINE
  8
0
 10
52.295
 11
52.76
 20
96.132
 21
96.295
  0
LINE
  8
0
 10
52.76
 11
53.25
 20
96.295
 21
96.35
  0
LINE
  8
0
 10
53.25
 11
53.74
 20
96.35
 21
96.295
  0
LINE
  8
0
 10
53.74
 11
54.205
 20
96.295
 21
96.132
  0
LINE
  8
0
 10
54.205
 11
54.622
 20
96.132
 21
95.87
  0
LINE
  8
0
 10
54.622
 11
54.97
 20
95.87
 21
95.522
  0
LINE
  8
0
 10
54.97
 11
55.232
 20
95.522
 21
95.105
  0
LINE
  8
0
 10
55.232
 11
55.395
 20
95.105
 21
94.64
  0
LINE
  8
0
 10
55.395
 11
55.45
 20
94.64
 21
94.15
  0
LINE
  8
0
 10
55.45
 11
55.395
 20
94.15
 21
93.66
  0
LINE
  8
0
 10
55.395
 11
55.232
 20
93.66
 21
93.195
  0
LINE
  8
0
 10
55.232
 11
54.97
 20
93.195
 21
92.778
  0
LINE
  8
0
 10
54.97
 11
54.622
 20
92.778
 21
92.43
  0
LINE
  8
0
 10
54.622
 11
54.205
 20
92.43
 21
92.168
  0
LINE
  8
0
 10
54.205
 11
53.74
 20
92.168
 21
92.005
  0
LINE
  8
0
 10
53.74
 11
53.25
 20
92.005
 21
91.95
  0
LINE
  8
0
 10
53.25
 11
52.76
 20
91.95
 21
92.005
  0
LINE
  8
0
 10
52.76
 11
52.295
 20
92.005
 21
92.168
  0
LINE
  8
0
 10
52.295
 11
51.878
 20
92.168
 21
92.43
  0
LINE
  8
0
 10
51.878
 11
51.53
 20
92.43
 21
92.778
  0
LINE
  8
0
 10
51.53
 11
51.268
 20
92.778
 21
93.195
  0
LINE
  8
0
 10
51.268
 11
51.105
 20
93.195
 21
93.66
  0
LINE
  8
0
 10
51.105
 11
51.05
 20
93.66
 21
94.15
  0
LINE
  8
0
 10
51.5
 11
51.643
 20
58.4
 21
61.668
  0
LINE
  8
0
 10
51.643
 11
52.07
 20
61.668
 21
64.912
  0
LINE
  8
0
 10
52.07
 11
52.778
 20
64.912
 21
68.106
  0
LINE
  8
0
 10
52.778
 11
53.762
 20
68.106
 21
71.226
  0
LINE
  8
0
 10
53.762
 11
55.013
 20
71.226
 21
74.248
  0
LINE
  8
0
 10
55.013
 11
56.524
 20
74.248
 21
77.15
  0
LINE
  8
0
 10
56.524
 11
58.282
 20
77.15
 21
79.909
  0
LINE
  8
0
 10
58.282
 11
60.273
 20
79.909
 21
82.505
  0
LINE
  8
0
 10
60.273
 11
62.483
 20
82.505
 21
84.917
  0
LINE
  8
0
 10
62.483
 11
64.895
 20
84.917
 21
87.127
  0
LINE
  8
0
 10
64.895
 11
67.491
 20
87.127
 21
89.118
  0
LINE
  8
0
 10
67.491
 11
70.25
 20
89.118
 21
90.876
  0
LINE
  8
0
 10
70.25
 11
73.152
 20
90.876
 21
92.387
  0
LINE
  8
0
 10
73.152
 11
76.174
 20
92.387
 21
93.638
  0
LINE
  8
0
 10
76.174
 11
79.294
 20
93.638
 21
94.622
  0
LINE
  8
0
 10
79.294
 11
82.488
 20
94.622
 21
95.33
  0
LINE
  8
0
 10
82.488
 11
85.732
 20
95.33
 21
95.757
  0
LINE
  8
0
 10
85.732
 11
89
 20
95.757
 21
95.9
  0
LINE
  8
0
 10
89
 11
92.268
 20
95.9
 21
95.757
  0
LINE
  8
0
 10
92.268
 11
95.512
 20
95.757
 21
95.33
  0
LINE
  8
0
 10
95.512
 11
98.706
 20
95.33
 21
94.622
  0
LINE
  8
0
 10
98.706
 11
101.826
 20
94.622
 21
93.638
  0
LINE
  8
0
 10
101.826
 11
104.848
 20
93.638
 21
92.387
  0
LINE
  8
0
 10
104.848
 11
107.75
 20
92.387
 21
90.876
  0
LINE
  8
0
 10
107.75
 11
110.509
 20
90.876
 21
89.118
  0
LINE
  8
0
 10
110.509
 11
113.105
 20
89.118
 21
87.127
  0
LINE
  8
0
 10
113.105
 11
115.517
 20
87.127
 21
84.917
  0
LINE
  8
0
 10
115.517
 11
117.727
 20
84.917
 21
82.505
  0
LINE
  8
0
 10
117.727
 11
119.718
 20
82.505
 21
79.909
  0
LINE
  8
0
 10
119.718
 11
121.476
 20
79.909
 21
77.15
  0
LINE
  8
0
 10
121.476
 11
122.987
 20
77.15
 21
74.248
  0
LINE
  8
0
 10
122.987
 11
124.238
 20
74.248
 21
71.226
  0
LINE
  8
0
 10
124.238
 11
125.222
 20
71.226
 21
68.106
  0
LINE
  8
0
 10
125.222
 11
125.93
 20
68.106
 21
64.912
  0
LINE
  8
0
 10
125.93
 11
126.357
 20
64.912
 21
61.668
  0
LINE
  8
0
 10
126.357
 11
126.5
 20
61.668
 21
58.4
  0
LINE
  8
0
 10
126.5
 11
126.357
 20
58.4
 21
55.132
  0
LINE
  8
0
 10
126.357
 11
125.93
 20
55.132
 21
51.888
  0
LINE
  8
0
 10
125.93
 11
125.222
 20
51.888
 21
48.694
  0
LINE
  8
0
 10
125.222
 11
124.238
 20
48.694
 21
45.574
  0
LINE
  8
0
 10
124.238
 11
122.987
 20
45.574
 21
42.552
  0
LINE
  8
0
 10
122.987
 11
121.476
 20
42.552
 21
39.65
  0
LINE
  8
0
 10
121.476
 11
119.718
 20
39.65
 21
36.891
  0
LINE
  8
0
 10
119.718
 11
117.727
 20
36.891
 21
34.295
  0
LINE
  8
0
 10
117.727
 11
115.517
 20
34.295
 21
31.883
  0
LINE
  8
0
 10
115.517
 11
113.105
 20
31.883
 21
29.673
  0
LINE
  8
0
 10
113.105
 11
110.509
 20
29.673
 21
27.682
  0
LINE
  8
0
 10
110.509
 11
107.75
 20
27.682
 21
25.924
  0
LINE
  8
0
 10
107.75
 11
104.848
 20
25.924
 21
24.413
  0
LINE
  8
0
 10
104.848
 11
101.826
 20
24.413
 21
23.162
  0
LINE
  8
0
 10
101.826
 11
98.706
 20
23.162
 21
22.178
  0
LINE
  8
0
 10
98.706
 11
95.512
 20
22.178
 21
21.47
  0
LINE
  8
0
 10
95.512
 11
92.268
 20
21.47
 21
21.043
  0
LINE
  8
0
 10
92.268
 11
89
 20
21.043
 21
20.9
  0
LINE
  8
0
 10
89
 11
85.732
 20
20.9
 21
21.043
  0
LINE
  8
0
 10
85.732
 11
82.488
 20
21.043
 21
21.47
  0
LINE
  8
0
 10
82.488
 11
79.294
 20
21.47
 21
22.178
  0
LINE
  8
0
 10
79.294
 11
76.174
 20
22.178
 21
23.162
  0
LINE
  8
0
 10
76.174
 11
73.152
 20
23.162
 21
24.413
  0
LINE
  8
0
 10
73.152
 11
70.25
 20
24.413
 21
25.924
  0
LINE
  8
0
 10
70.25
 11
67.491
 20
25.924
 21
27.682
  0
LINE
  8
0
 10
67.491
 11
64.895
 20
27.682
 21
29.673
  0
LINE
  8
0
 10
64.895
 11
62.483
 20
29.673
 21
31.883
  0
LINE
  8
0
 10
62.483
 11
60.273
 20
31.883
 21
34.295
  0
LINE
  8
0
 10
60.273
 11
58.282
 20
34.295
 21
36.891
  0
LINE
  8
0
 10
58.282
 11
56.524
 20
36.891
 21
39.65
  0
LINE
  8
0
 10
56.524
 11
55.013
 20
39.65
 21
42.552
  0
LINE
  8
0
 10
55.013
 11
53.762
 20
42.552
 21
45.574
  0
LINE
  8
0
 10
53.762
 11
52.778
 20
45.574
 21
48.694
  0
LINE
  8
0
 10
52.778
 11
52.07
 20
48.694
 21
51.888
  0
LINE
  8
0
 10
52.07
 11
51.643
 20
51.888
 21
55.132
  0
LINE
  8
0
 10
51.643
 11
51.5
 20
55.132
 21
58.4
  0
LINE
  8
0
 10
122.55
 11
122.605
 20
22.65
 21
23.14
  0
LINE
  8
0
 10
122.605
 11
122.768
 20
23.14
 21
23.605
  0
LINE
  8
0
 10
122.768
 11
123.03
 20
23.605
 21
24.022
  0
LINE
  8
0
 10
123.03
 11
123.378
 20
24.022
 21
24.37
  0
LINE
  8
0
 10
123.378
 11
123.795
 20
24.37
 21
24.632
  0
LINE
  8
0
 10
123.795
 11
124.26
 20
24.632
 21
24.795
  0
LINE
  8
0
 10
124.26
 11
124.75
 20
24.795
 21
24.85
  0
LINE
  8
0
 10
124.75
 11
125.24
 20
24.85
 21
24.795
  0
LINE
  8
0
 10
125.24
 11
125.705
 20
24.795
 21
24.632
  0
LINE
  8
0
 10
125.705
 11
126.122
 20
24.632
 21
24.37
  0
LINE
  8
0
 10
126.122
 11
126.47
 20
24.37
 21
24.022
  0
LINE
  8
0
 10
126.47
 11
126.732
 20
24.022
 21
23.605
  0
LINE
  8
0
 10
126.732
 11
126.895
 20
23.605
 21
23.14
  0
LINE
  8
0
 10
126.895
 11
126.95
 20
23.14
 21
22.65
  0
LINE
  8
0
 10
126.95
 11
126.895
 20
22.65
 21
22.16
  0
LINE
  8
0
 10
126.895
 11
126.732
 20
22.16
 21
21.695
  0
LINE
  8
0
 10
126.732
 11
126.47
 20
21.695
 21
21.278
  0
LINE
  8
0
 10
126.47
 11
126.122
 20
21.278
 21
20.93
  0
LINE
  8
0
 10
126.122
 11
125.705
 20
20.93
 21
20.668
  0
LINE
  8
0
 10
125.705
 11
125.24
 20
20.668
 21
20.505
  0
LINE
  8
0
 10
125.24
 11
124.75
 20
20.505
 21
20.45
  0
LINE
  8
0
 10
124.75
 11
124.26
 20
20.45
 21
20.505
  0
LINE
  8
0
 10
124.26
 11
123.795
 20
20.505
 21
20.668
  0
LINE
  8
0
 10
123.795
 11
123.378
 20
20.668
 21
20.93
  0
LINE
  8
0
 10
123.378
 11
123.03
 20
20.93
 21
21.278
  0
LINE
  8
0
 10
123.03
 11
122.768
 20
21.278
 21
21.695
  0
LINE
  8
0
 10
122.768
 11
122.605
 20
21.695
 21
22.16
  0
LINE
  8
0
 10
122.605
 11
122.55
 20
22.16
 21
22.65
  0
LINE
  8
0
 10
122.55
 11
122.605
 20
94.15
 21
94.64
  0
LINE
  8
0
 10
122.605
 11
122.768
 20
94.64
 21
95.105
  0
LINE
  8
0
 10
122.768
 11
123.03
 20
95.105
 21
95.522
  0
LINE
  8
0
 10
123.03
 11
123.378
 20
95.522
 21
95.87
  0
LINE
  8
0
 10
123.378
 11
123.795
 20
95.87
 21
96.132
  0
LINE
  8
0
 10
123.795
 11
124.26
 20
96.132
 21
96.295
  0
LINE
  8
0
 10
124.26
 11
124.75
 20
96.295
 21
96.35
  0
LINE
  8
0
 10
124.75
 11
125.24
 20
96.35
 21
96.295
  0
LINE
  8
0
 10
125.24
 11
125.705
 20
96.295
 21
96.132
  0
LINE
  8
0
 10
125.705
 11
126.122
 20
96.132
 21
95.87
  0
LINE
  8
0
 10
126.122
 11
126.47
 20
95.87
 21
95.522
  0
LINE
  8
0
 10
126.47
 11
126.732
 20
95.522
 21
95.105
  0
LINE
  8
0
 10
126.732
 11
126.895
 20
95.105
 21
94.64
  0
LINE
  8
0
 10
126.895
 11
126.95
 20
94.64
 21
94.15
  0
LINE
  8
0
 10
126.95
 11
126.895
 20
94.15
 21
93.66
  0
LINE
  8
0
 10
126.895
 11
126.732
 20
93.66
 21
93.195
  0
LINE
  8
0
 10
126.732
 11
126.47
 20
93.195
 21
92.778
  0
LINE
  8
0
 10
126.47
 11
126.122
 20
92.778
 21
92.43
  0
LINE
  8
0
 10
126.122
 11
125.705
 20
92.43
 21
92.168
  0
LINE
  8
0
 10
125.705
 11
125.24
 20
92.168
 21
92.005
  0
LINE
  8
0
 10
125.24
 11
124.75
 20
92.005
 21
91.95
  0
LINE
  8
0
 10
124.75
 11
124.26
 20
91.95
 21
92.005
  0
LINE
  8
0
 10
124.26
 11
123.795
 20
92.005
 21
92.168
  0
LINE
  8
0
 10
123.795
 11
123.378
 20
92.168
 21
92.43
  0
LINE
  8
0
 10
123.378
 11
123.03
 20
92.43
 21
92.778
  0
LINE
  8
0
 10
123.03
 11
122.768
 20
92.778
 21
93.195
  0
LINE
  8
0
 10
122.768
 11
122.605
 20
93.195
 21
93.66
  0
LINE
  8
0
 10
122.605
 11
122.55
 20
93.66
 21
94.15
  0
LINE
  8
0
 10
287.712
 11
287.785
 20
88.05
 21
88.536
  0
LINE
  8
0
 10
287.785
 11
287.998
 20
88.536
 21
88.979
  0
LINE
  8
0
 10
287.998
 11
288.333
 20
88.979
 21
89.34
  0
LINE
  8
0
 10
288.333
 11
288.759
 20
89.34
 21
89.586
  0
LINE
  8
0
 10
288.759
 11
289.238
 20
89.586
 21
89.695
  0
LINE
  8
0
 10
289.238
 11
289.729
 20
89.695
 21
89.659
  0
LINE
  8
0
 10
289.729
 11
290.187
 20
89.659
 21
89.479
  0
LINE
  8
0
 10
290.187
 11
290.571
 20
89.479
 21
89.172
  0
LINE
  8
0
 10
290.571
 11
290.848
 20
89.172
 21
88.766
  0
LINE
  8
0
 10
290.848
 11
290.993
 20
88.766
 21
88.296
  0
LINE
  8
0
 10
290.993
 11
290.993
 20
88.296
 21
87.804
  0
LINE
  8
0
 10
290.993
 11
290.848
 20
87.804
 21
87.334
  0
LINE
  8
0
 10
290.848
 11
290.571
 20
87.334
 21
86.928
  0
LINE
  8
0
 10
290.571
 11
290.187
 20
86.928
 21
86.621
  0
LINE
  8
0
 10
290.187
 11
289.729
 20
86.621
 21
86.441
  0
LINE
  8
0
 10
289.729
 11
289.238
 20
86.441
 21
86.405
  0
LINE
  8
0
 10
289.238
 11
288.759
 20
86.405
 21
86.514
  0
LINE
  8
0
 10
288.759
 11
288.333
 20
86.514
 21
86.76
  0
LINE
  8
0
 10
288.333
 11
287.998
 20
86.76
 21
87.121
  0
LINE
  8
0
 10
287.998
 11
287.785
 20
87.121
 21
87.564
  0
LINE
  8
0
 10
287.785
 11
287.712
 20
87.564
 21
88.05
  0
LINE
  8
0
 10
313.68
 11
313.721
 20
8
 21
8.494
  0
LINE
  8
0
 10
313.721
 11
313.843
 20
8.494
 21
8.974
  0
LINE
  8
0
 10
313.843
 11
314.042
 20
8.974
 21
9.428
  0
LINE
  8
0
 10
314.042
 11
314.313
 20
9.428
 21
9.843
  0
LINE
  8
0
 10
314.313
 11
314.648
 20
9.843
 21
10.207
  0
LINE
  8
0
 10
314.648
 11
315.039
 20
10.207
 21
10.511
  0
LINE
  8
0
 10
315.039
 11
315.475
 20
10.511
 21
10.747
  0
LINE
  8
0
 10
315.475
 11
315.944
 20
10.747
 21
10.908
  0
LINE
  8
0
 10
315.944
 11
316.432
 20
10.908
 21
10.99
  0
LINE
  8
0
 10
316.432
 11
316.928
 20
10.99
 21
10.99
  0
LINE
  8
0
 10
316.928
 11
317.416
 20
10.99
 21
10.908
  0
LINE
  8
0
 10
317.416
 11
317.885
 20
10.908
 21
10.747
  0
LINE
  8
0
 10
317.885
 11
318.321
 20
10.747
 21
10.511
  0
LINE
  8
0
 10
318.321
 11
318.712
 20
10.511
 21
10.207
  0
LINE
  8
0
 10
318.712
 11
319.047
 20
10.207
 21
9.843
  0
LINE
  8
0
 10
319.047
 11
319.318
 20
9.843
 21
9.428
  0
LINE
  8
0
 10
319.318
 11
319.517
 20
9.428
 21
8.974
  0
LINE
  8
0
 10
319.517
 11
319.639
 20
8.974
 21
8.494
  0
LINE
  8
0
 10
319.639
 11
319.68
 20
8.494
 21
8
  0
LINE
  8
0
 10
319.68
 11
319.639
 20
8
 21
7.506
  0
LINE
  8
0
 10
319.639
 11
319.517
 20
7.506
 21
7.026
  0
LINE
  8
0
 10
319.517
 11
319.318
 20
7.026
 21
6.572
  0
LINE
  8
0
 10
319.318
 11
319.047
 20
6.572
 21
6.157
  0
LINE
  8
0
 10
319.047
 11
318.712
 20
6.157
 21
5.793
  0
LINE
  8
0
 10
318.712
 11
318.321
 20
5.793
 21
5.489
  0
LINE
  8
0
 10
318.321
 11
317.885
 20
5.489
 21
5.253
  0
LINE
  8
0
 10
317.885
 11
317.416
 20
5.253
 21
5.092
  0
LINE
  8
0
 10
317.416
 11
316.928
 20
5.092
 21
5.01
  0
LINE
  8
0
 10
316.928
 11
316.432
 20
5.01
 21
5.01
  0
LINE
  8
0
 10
316.432
 11
315.944
 20
5.01
 21
5.092
  0
LINE
  8
0
 10
315.944
 11
315.475
 20
5.092
 21
5.253
  0
LINE
  8
0
 10
315.475
 11
315.039
 20
5.253
 21
5.489
  0
LINE
  8
0
 10
315.039
 11
314.648
 20
5.489
 21
5.793
  0
LINE
  8
0
 10
314.648
 11
314.313
 20
5.793
 21
6.157
  0
LINE
  8
0
 10
314.313
 11
314.042
 20
6.157
 21
6.572
  0
LINE
  8
0
 10
314.042
 11
313.843
 20
6.572
 21
7.026
  0
LINE
  8
0
 10
313.843
 11
313.721
 20
7.026
 21
7.506
  0
LINE
  8
0
 10
313.721
 11
313.68
 20
7.506
 21
8
  0
LINE
  8
0
 10
326.58
 11
326.638
 20
7
 21
7.479
  0
LINE
  8
0
 10
326.638
 11
326.809
 20
7.479
 21
7.929
  0
LINE
  8
0
 10
326.809
 11
327.083
 20
7.929
 21
8.326
  0
LINE
  8
0
 10
327.083
 11
327.444
 20
8.326
 21
8.646
  0
LINE
  8
0
 10
327.444
 11
327.871
 20
8.646
 21
8.87
  0
LINE
  8
0
 10
327.871
 11
328.339
 20
8.87
 21
8.985
  0
LINE
  8
0
 10
328.339
 11
328.821
 20
8.985
 21
8.985
  0
LINE
  8
0
 10
328.821
 11
329.289
 20
8.985
 21
8.87
  0
LINE
  8
0
 10
329.289
 11
329.716
 20
8.87
 21
8.646
  0
LINE
  8
0
 10
329.716
 11
330.077
 20
8.646
 21
8.326
  0
LINE
  8
0
 10
330.077
 11
330.351
 20
8.326
 21
7.929
  0
LINE
  8
0
 10
330.351
 11
330.522
 20
7.929
 21
7.479
  0
LINE
  8
0
 10
330.522
 11
330.58
 20
7.479
 21
7
  0
LINE
  8
0
 10
330.58
 11
330.522
 20
7
 21
6.521
  0
LINE
  8
0
 10
330.522
 11
330.351
 20
6.521
 21
6.071
  0
LINE
  8
0
 10
330.351
 11
330.077
 20
6.071
 21
5.674
  0
LINE
  8
0
 10
330.077
 11
329.716
 20
5.674
 21
5.354
  0
LINE
  8
0
 10
329.716
 11
329.289
 20
5.354
 21
5.13
  0
LINE
  8
0
 10
329.289
 11
328.821
 20
5.13
 21
5.015
  0
LINE
  8
0
 10
328.821
 11
328.339
 20
5.015
 21
5.015
  0
LINE
  8
0
 10
328.339
 11
327.871
 20
5.015
 21
5.13
  0
LINE
  8
0
 10
327.871
 11
327.444
 20
5.13
 21
5.354
  0
LINE
  8
0
 10
327.444
 11
327.083
 20
5.354
 21
5.674
  0
LINE
  8
0
 10
327.083
 11
326.809
 20
5.674
 21
6.071
  0
LINE
  8
0
 10
326.809
 11
326.638
 20
6.071
 21
6.521
  0
LINE
  8
0
 10
326.638
 11
326.58
 20
6.521
 21
7
  0
LINE
  8
0
 10
340.03
 11
340.103
 20
8.2
 21
8.686
  0
LINE
  8
0
 10
340.103
 11
340.317
 20
8.686
 21
9.129
  0
LINE
  8
0
 10
340.317
 11
340.651
 20
9.129
 21
9.49
  0
LINE
  8
0
 10
340.651
 11
341.077
 20
9.49
 21
9.736
  0
LINE
  8
0
 10
341.077
 11
341.557
 20
9.736
 21
9.845
  0
LINE
  8
0
 10
341.557
 11
342.047
 20
9.845
 21
9.809
  0
LINE
  8
0
 10
342.047
 11
342.505
 20
9.809
 21
9.629
  0
LINE
  8
0
 10
342.505
 11
342.89
 20
9.629
 21
9.322
  0
LINE
  8
0
 10
342.89
 11
343.167
 20
9.322
 21
8.916
  0
LINE
  8
0
 10
343.167
 11
343.312
 20
8.916
 21
8.446
  0
LINE
  8
0
 10
343.312
 11
343.312
 20
8.446
 21
7.954
  0
LINE
  8
0
 10
343.312
 11
343.167
 20
7.954
 21
7.484
  0
LINE
  8
0
 10
343.167
 11
342.89
 20
7.484
 21
7.078
  0
LINE
  8
0
 10
342.89
 11
342.505
 20
7.078
 21
6.771
  0
LINE
  8
0
 10
342.505
 11
342.047
 20
6.771
 21
6.591
  0
LINE
  8
0
 10
342.047
 11
341.557
 20
6.591
 21
6.555
  0
LINE
  8
0
 10
341.557
 11
341.077
 20
6.555
 21
6.664
  0
LINE
  8
0
 10
341.077
 11
340.651
 20
6.664
 21
6.91
  0
LINE
  8
0
 10
340.651
 11
340.317
 20
6.91
 21
7.271
  0
LINE
  8
0
 10
340.317
 11
340.103
 20
7.271
 21
7.714
  0
LINE
  8
0
 10
340.103
 11
340.03
 20
7.714
 21
8.2
  0
LINE
  8
0
 10
361.25
 11
361.323
 20
8.2
 21
8.686
  0
LINE
  8
0
 10
361.323
 11
361.537
 20
8.686
 21
9.129
  0
LINE
  8
0
 10
361.537
 11
361.871
 20
9.129
 21
9.49
  0
LINE
  8
0
 10
361.871
 11
362.297
 20
9.49
 21
9.736
  0
LINE
  8
0
 10
362.297
 11
362.777
 20
9.736
 21
9.845
  0
LINE
  8
0
 10
362.777
 11
363.267
 20
9.845
 21
9.809
  0
LINE
  8
0
 10
363.267
 11
363.725
 20
9.809
 21
9.629
  0
LINE
  8
0
 10
363.725
 11
364.11
 20
9.629
 21
9.322
  0
LINE
  8
0
 10
364.11
 11
364.387
 20
9.322
 21
8.916
  0
LINE
  8
0
 10
364.387
 11
364.532
 20
8.916
 21
8.446
  0
LINE
  8
0
 10
364.532
 11
364.532
 20
8.446
 21
7.954
  0
LINE
  8
0
 10
364.532
 11
364.387
 20
7.954
 21
7.484
  0
LINE
  8
0
 10
364.387
 11
364.11
 20
7.484
 21
7.078
  0
LINE
  8
0
 10
364.11
 11
363.725
 20
7.078
 21
6.771
  0
LINE
  8
0
 10
363.725
 11
363.267
 20
6.771
 21
6.591
  0
LINE
  8
0
 10
363.267
 11
362.777
 20
6.591
 21
6.555
  0
LINE
  8
0
 10
362.777
 11
362.297
 20
6.555
 21
6.664
  0
LINE
  8
0
 10
362.297
 11
361.871
 20
6.664
 21
6.91
  0
LINE
  8
0
 10
361.871
 11
361.537
 20
6.91
 21
7.271
  0
LINE
  8
0
 10
361.537
 11
361.323
 20
7.271
 21
7.714
  0
LINE
  8
0
 10
361.323
 11
361.25
 20
7.714
 21
8.2
  0
ENDSEC
  0
SECTION
  2
OBJECTS
  0
DICTIONARY
  0
ENDSEC
  0
EOF
