  0
SECTION
  2
BLOCKS
  0
ENDSEC
  0
SECTION
  2
ENTITIES
  0
LINE
  8
0
 10
-96.5
 11
-96.5
 20
-108.5
 21
108.5
  0
LINE
  8
0
 10
-96.5
 11
-28.16
 20
108.5
 21
108.5
  0
LINE
  8
0
 10
-28.16
 11
-28.16
 20
108.5
 21
73.5
  0
LINE
  8
0
 10
-28.16
 11
28.16
 20
73.5
 21
73.5
  0
LINE
  8
0
 10
28.16
 11
28.16
 20
73.5
 21
108.5
  0
LINE
  8
0
 10
28.16
 11
96.5
 20
108.5
 21
108.5
  0
LINE
  8
0
 10
96.5
 11
96.5
 20
108.5
 21
-108.5
  0
LINE
  8
0
 10
96.5
 11
-96.5
 20
-108.5
 21
-108.5
  0
LINE
  8
0
 10
-77
 11
-77
 20
-73
 21
-63
  0
LINE
  8
0
 10
-77
 11
-67
 20
-63
 21
-63
  0
LINE
  8
0
 10
-67
 11
-67
 20
-63
 21
-73
  0
LINE
  8
0
 10
-67
 11
-77
 20
-73
 21
-73
  0
LINE
  8
0
 10
-77
 11
-77
 20
84
 21
94
  0
LINE
  8
0
 10
-77
 11
-67
 20
94
 21
94
  0
LINE
  8
0
 10
-67
 11
-67
 20
94
 21
84
  0
LINE
  8
0
 10
-67
 11
-77
 20
84
 21
84
  0
LINE
  8
0
 10
-36.51
 11
-36.51
 20
-58.675
 21
-34.025
  0
LINE
  8
0
 10
-36.51
 11
-26.51
 20
-34.025
 21
-34.025
  0
LINE
  8
0
 10
-26.51
 11
-26.51
 20
-34.025
 21
-58.675
  0
LINE
  8
0
 10
-26.51
 11
-36.51
 20
-58.675
 21
-58.675
  0
LINE
  8
0
 10
-36.51
 11
-36.51
 20
31.175
 21
55.825
  0
LINE
  8
0
 10
-36.51
 11
-26.51
 20
55.825
 21
55.825
  0
LINE
  8
0
 10
-26.51
 11
-26.51
 20
55.825
 21
31.175
  0
LINE
  8
0
 10
-26.51
 11
-36.51
 20
31.175
 21
31.175
  0
LINE
  8
0
 10
67
 11
67
 20
-15.5
 21
-5.5
  0
LINE
  8
0
 10
67
 11
77
 20
-5.5
 21
-5.5
  0
LINE
  8
0
 10
77
 11
77
 20
-5.5
 21
-15.5
  0
LINE
  8
0
 10
77
 11
67
 20
-15.5
 21
-15.5
  0
ENDSEC
  0
SECTION
  2
OBJECTS
  0
DICTIONARY
  0
ENDSEC
  0
EOF
