  0
SECTION
  2
BLOCKS
  0
ENDSEC
  0
SECTION
  2
ENTITIES
  0
LINE
  8
0
 10
-105.75
 11
-105.655
 20
-104.5
 21
-104.022
  0
LINE
  8
0
 10
-105.655
 11
-105.384
 20
-104.022
 21
-103.616
  0
LINE
  8
0
 10
-105.384
 11
-104.978
 20
-103.616
 21
-103.345
  0
LINE
  8
0
 10
-104.978
 11
-104.5
 20
-103.345
 21
-103.25
  0
LINE
  8
0
 10
-104.5
 11
-104.022
 20
-103.25
 21
-103.345
  0
LINE
  8
0
 10
-104.022
 11
-103.616
 20
-103.345
 21
-103.616
  0
LINE
  8
0
 10
-103.616
 11
-103.345
 20
-103.616
 21
-104.022
  0
LINE
  8
0
 10
-103.345
 11
-103.25
 20
-104.022
 21
-104.5
  0
LINE
  8
0
 10
-103.25
 11
-103.345
 20
-104.5
 21
-104.978
  0
LINE
  8
0
 10
-103.345
 11
-103.616
 20
-104.978
 21
-105.384
  0
LINE
  8
0
 10
-103.616
 11
-104.022
 20
-105.384
 21
-105.655
  0
LINE
  8
0
 10
-104.022
 11
-104.5
 20
-105.655
 21
-105.75
  0
LINE
  8
0
 10
-104.5
 11
-104.978
 20
-105.75
 21
-105.655
  0
LINE
  8
0
 10
-104.978
 11
-105.384
 20
-105.655
 21
-105.384
  0
LINE
  8
0
 10
-105.384
 11
-105.655
 20
-105.384
 21
-104.978
  0
LINE
  8
0
 10
-105.655
 11
-105.75
 20
-104.978
 21
-104.5
  0
LINE
  8
0
 10
-105.75
 11
-105.655
 20
104.5
 21
104.978
  0
LINE
  8
0
 10
-105.655
 11
-105.384
 20
104.978
 21
105.384
  0
LINE
  8
0
 10
-105.384
 11
-104.978
 20
105.384
 21
105.655
  0
LINE
  8
0
 10
-104.978
 11
-104.5
 20
105.655
 21
105.75
  0
LINE
  8
0
 10
-104.5
 11
-104.022
 20
105.75
 21
105.655
  0
LINE
  8
0
 10
-104.022
 11
-103.616
 20
105.655
 21
105.384
  0
LINE
  8
0
 10
-103.616
 11
-103.345
 20
105.384
 21
104.978
  0
LINE
  8
0
 10
-103.345
 11
-103.25
 20
104.978
 21
104.5
  0
LINE
  8
0
 10
-103.25
 11
-103.345
 20
104.5
 21
104.022
  0
LINE
  8
0
 10
-103.345
 11
-103.616
 20
104.022
 21
103.616
  0
LINE
  8
0
 10
-103.616
 11
-104.022
 20
103.616
 21
103.345
  0
LINE
  8
0
 10
-104.022
 11
-104.5
 20
103.345
 21
103.25
  0
LINE
  8
0
 10
-104.5
 11
-104.978
 20
103.25
 21
103.345
  0
LINE
  8
0
 10
-104.978
 11
-105.384
 20
103.345
 21
103.616
  0
LINE
  8
0
 10
-105.384
 11
-105.655
 20
103.616
 21
104.022
  0
LINE
  8
0
 10
-105.655
 11
-105.75
 20
104.022
 21
104.5
  0
LINE
  8
0
 10
-104.2
 11
-104.145
 20
-88
 21
-87.51
  0
LINE
  8
0
 10
-104.145
 11
-103.982
 20
-87.51
 21
-87.045
  0
LINE
  8
0
 10
-103.982
 11
-103.72
 20
-87.045
 21
-86.628
  0
LINE
  8
0
 10
-103.72
 11
-103.372
 20
-86.628
 21
-86.28
  0
LINE
  8
0
 10
-103.372
 11
-102.955
 20
-86.28
 21
-86.018
  0
LINE
  8
0
 10
-102.955
 11
-102.49
 20
-86.018
 21
-85.855
  0
LINE
  8
0
 10
-102.49
 11
-102
 20
-85.855
 21
-85.8
  0
LINE
  8
0
 10
-102
 11
-101.51
 20
-85.8
 21
-85.855
  0
LINE
  8
0
 10
-101.51
 11
-101.045
 20
-85.855
 21
-86.018
  0
LINE
  8
0
 10
-101.045
 11
-100.628
 20
-86.018
 21
-86.28
  0
LINE
  8
0
 10
-100.628
 11
-100.28
 20
-86.28
 21
-86.628
  0
LINE
  8
0
 10
-100.28
 11
-100.018
 20
-86.628
 21
-87.045
  0
LINE
  8
0
 10
-100.018
 11
-99.855
 20
-87.045
 21
-87.51
  0
LINE
  8
0
 10
-99.855
 11
-99.8
 20
-87.51
 21
-88
  0
LINE
  8
0
 10
-99.8
 11
-99.855
 20
-88
 21
-88.49
  0
LINE
  8
0
 10
-99.855
 11
-100.018
 20
-88.49
 21
-88.955
  0
LINE
  8
0
 10
-100.018
 11
-100.28
 20
-88.955
 21
-89.372
  0
LINE
  8
0
 10
-100.28
 11
-100.628
 20
-89.372
 21
-89.72
  0
LINE
  8
0
 10
-100.628
 11
-101.045
 20
-89.72
 21
-89.982
  0
LINE
  8
0
 10
-101.045
 11
-101.51
 20
-89.982
 21
-90.145
  0
LINE
  8
0
 10
-101.51
 11
-102
 20
-90.145
 21
-90.2
  0
LINE
  8
0
 10
-102
 11
-102.49
 20
-90.2
 21
-90.145
  0
LINE
  8
0
 10
-102.49
 11
-102.955
 20
-90.145
 21
-89.982
  0
LINE
  8
0
 10
-102.955
 11
-103.372
 20
-89.982
 21
-89.72
  0
LINE
  8
0
 10
-103.372
 11
-103.72
 20
-89.72
 21
-89.372
  0
LINE
  8
0
 10
-103.72
 11
-103.982
 20
-89.372
 21
-88.955
  0
LINE
  8
0
 10
-103.982
 11
-104.145
 20
-88.955
 21
-88.49
  0
LINE
  8
0
 10
-104.145
 11
-104.2
 20
-88.49
 21
-88
  0
LINE
  8
0
 10
-104.2
 11
-104.145
 20
64
 21
64.49
  0
LINE
  8
0
 10
-104.145
 11
-103.982
 20
64.49
 21
64.955
  0
LINE
  8
0
 10
-103.982
 11
-103.72
 20
64.955
 21
65.372
  0
LINE
  8
0
 10
-103.72
 11
-103.372
 20
65.372
 21
65.72
  0
LINE
  8
0
 10
-103.372
 11
-102.955
 20
65.72
 21
65.982
  0
LINE
  8
0
 10
-102.955
 11
-102.49
 20
65.982
 21
66.145
  0
LINE
  8
0
 10
-102.49
 11
-102
 20
66.145
 21
66.2
  0
LINE
  8
0
 10
-102
 11
-101.51
 20
66.2
 21
66.145
  0
LINE
  8
0
 10
-101.51
 11
-101.045
 20
66.145
 21
65.982
  0
LINE
  8
0
 10
-101.045
 11
-100.628
 20
65.982
 21
65.72
  0
LINE
  8
0
 10
-100.628
 11
-100.28
 20
65.72
 21
65.372
  0
LINE
  8
0
 10
-100.28
 11
-100.018
 20
65.372
 21
64.955
  0
LINE
  8
0
 10
-100.018
 11
-99.855
 20
64.955
 21
64.49
  0
LINE
  8
0
 10
-99.855
 11
-99.8
 20
64.49
 21
64
  0
LINE
  8
0
 10
-99.8
 11
-99.855
 20
64
 21
63.51
  0
LINE
  8
0
 10
-99.855
 11
-100.018
 20
63.51
 21
63.045
  0
LINE
  8
0
 10
-100.018
 11
-100.28
 20
63.045
 21
62.628
  0
LINE
  8
0
 10
-100.28
 11
-100.628
 20
62.628
 21
62.28
  0
LINE
  8
0
 10
-100.628
 11
-101.045
 20
62.28
 21
62.018
  0
LINE
  8
0
 10
-101.045
 11
-101.51
 20
62.018
 21
61.855
  0
LINE
  8
0
 10
-101.51
 11
-102
 20
61.855
 21
61.8
  0
LINE
  8
0
 10
-102
 11
-102.49
 20
61.8
 21
61.855
  0
LINE
  8
0
 10
-102.49
 11
-102.955
 20
61.855
 21
62.018
  0
LINE
  8
0
 10
-102.955
 11
-103.372
 20
62.018
 21
62.28
  0
LINE
  8
0
 10
-103.372
 11
-103.72
 20
62.28
 21
62.628
  0
LINE
  8
0
 10
-103.72
 11
-103.982
 20
62.628
 21
63.045
  0
LINE
  8
0
 10
-103.982
 11
-104.145
 20
63.045
 21
63.51
  0
LINE
  8
0
 10
-104.145
 11
-104.2
 20
63.51
 21
64
  0
LINE
  8
0
 10
-108.5
 11
-108.459
 20
105.5
 21
105.994
  0
LINE
  8
0
 10
-108.459
 11
-108.337
 20
105.994
 21
106.474
  0
LINE
  8
0
 10
-108.337
 11
-108.138
 20
106.474
 21
106.928
  0
LINE
  8
0
 10
-108.138
 11
-107.867
 20
106.928
 21
107.343
  0
LINE
  8
0
 10
-107.867
 11
-107.532
 20
107.343
 21
107.707
  0
LINE
  8
0
 10
-107.532
 11
-107.141
 20
107.707
 21
108.011
  0
LINE
  8
0
 10
-107.141
 11
-106.705
 20
108.011
 21
108.247
  0
LINE
  8
0
 10
-106.705
 11
-106.236
 20
108.247
 21
108.408
  0
LINE
  8
0
 10
-106.236
 11
-105.748
 20
108.408
 21
108.49
  0
LINE
  8
0
 10
-105.748
 11
-18.51
 20
108.49
 21
108.494
  0
LINE
  8
0
 10
-18.51
 11
-18.51
 20
108.494
 21
102.65
  0
LINE
  8
0
 10
-18.51
 11
18.51
 20
102.65
 21
102.65
  0
LINE
  8
0
 10
18.51
 11
18.51
 20
102.65
 21
108.496
  0
LINE
  8
0
 10
18.51
 11
105.5
 20
108.496
 21
108.5
  0
LINE
  8
0
 10
105.5
 11
105.994
 20
108.5
 21
108.459
  0
LINE
  8
0
 10
105.994
 11
106.474
 20
108.459
 21
108.337
  0
LINE
  8
0
 10
106.474
 11
106.928
 20
108.337
 21
108.138
  0
LINE
  8
0
 10
106.928
 11
107.343
 20
108.138
 21
107.867
  0
LINE
  8
0
 10
107.343
 11
107.707
 20
107.867
 21
107.532
  0
LINE
  8
0
 10
107.707
 11
108.011
 20
107.532
 21
107.141
  0
LINE
  8
0
 10
108.011
 11
108.247
 20
107.141
 21
106.705
  0
LINE
  8
0
 10
108.247
 11
108.408
 20
106.705
 21
106.236
  0
LINE
  8
0
 10
108.408
 11
108.49
 20
106.236
 21
105.748
  0
LINE
  8
0
 10
108.49
 11
108.5
 20
105.748
 21
-105.5
  0
LINE
  8
0
 10
108.5
 11
108.459
 20
-105.5
 21
-105.994
  0
LINE
  8
0
 10
108.459
 11
108.337
 20
-105.994
 21
-106.474
  0
LINE
  8
0
 10
108.337
 11
108.138
 20
-106.474
 21
-106.928
  0
LINE
  8
0
 10
108.138
 11
107.867
 20
-106.928
 21
-107.343
  0
LINE
  8
0
 10
107.867
 11
107.532
 20
-107.343
 21
-107.707
  0
LINE
  8
0
 10
107.532
 11
107.141
 20
-107.707
 21
-108.011
  0
LINE
  8
0
 10
107.141
 11
106.705
 20
-108.011
 21
-108.247
  0
LINE
  8
0
 10
106.705
 11
106.236
 20
-108.247
 21
-108.408
  0
LINE
  8
0
 10
106.236
 11
105.748
 20
-108.408
 21
-108.49
  0
LINE
  8
0
 10
105.748
 11
-105.5
 20
-108.49
 21
-108.5
  0
LINE
  8
0
 10
-105.5
 11
-105.994
 20
-108.5
 21
-108.459
  0
LINE
  8
0
 10
-105.994
 11
-106.474
 20
-108.459
 21
-108.337
  0
LINE
  8
0
 10
-106.474
 11
-106.928
 20
-108.337
 21
-108.138
  0
LINE
  8
0
 10
-106.928
 11
-107.343
 20
-108.138
 21
-107.867
  0
LINE
  8
0
 10
-107.343
 11
-107.707
 20
-107.867
 21
-107.532
  0
LINE
  8
0
 10
-107.707
 11
-108.011
 20
-107.532
 21
-107.141
  0
LINE
  8
0
 10
-108.011
 11
-108.247
 20
-107.141
 21
-106.705
  0
LINE
  8
0
 10
-108.247
 11
-108.408
 20
-106.705
 21
-106.236
  0
LINE
  8
0
 10
-108.408
 11
-108.49
 20
-106.236
 21
-105.748
  0
LINE
  8
0
 10
-108.49
 11
-108.5
 20
-105.748
 21
105.5
  0
LINE
  8
0
 10
-67.2
 11
-67.145
 20
-64
 21
-63.51
  0
LINE
  8
0
 10
-67.145
 11
-66.982
 20
-63.51
 21
-63.045
  0
LINE
  8
0
 10
-66.982
 11
-66.72
 20
-63.045
 21
-62.628
  0
LINE
  8
0
 10
-66.72
 11
-66.372
 20
-62.628
 21
-62.28
  0
LINE
  8
0
 10
-66.372
 11
-65.955
 20
-62.28
 21
-62.018
  0
LINE
  8
0
 10
-65.955
 11
-65.49
 20
-62.018
 21
-61.855
  0
LINE
  8
0
 10
-65.49
 11
-65
 20
-61.855
 21
-61.8
  0
LINE
  8
0
 10
-65
 11
-64.51
 20
-61.8
 21
-61.855
  0
LINE
  8
0
 10
-64.51
 11
-64.045
 20
-61.855
 21
-62.018
  0
LINE
  8
0
 10
-64.045
 11
-63.628
 20
-62.018
 21
-62.28
  0
LINE
  8
0
 10
-63.628
 11
-63.28
 20
-62.28
 21
-62.628
  0
LINE
  8
0
 10
-63.28
 11
-63.018
 20
-62.628
 21
-63.045
  0
LINE
  8
0
 10
-63.018
 11
-62.855
 20
-63.045
 21
-63.51
  0
LINE
  8
0
 10
-62.855
 11
-62.8
 20
-63.51
 21
-64
  0
LINE
  8
0
 10
-62.8
 11
-62.855
 20
-64
 21
-64.49
  0
LINE
  8
0
 10
-62.855
 11
-63.018
 20
-64.49
 21
-64.955
  0
LINE
  8
0
 10
-63.018
 11
-63.28
 20
-64.955
 21
-65.372
  0
LINE
  8
0
 10
-63.28
 11
-63.628
 20
-65.372
 21
-65.72
  0
LINE
  8
0
 10
-63.628
 11
-64.045
 20
-65.72
 21
-65.982
  0
LINE
  8
0
 10
-64.045
 11
-64.51
 20
-65.982
 21
-66.145
  0
LINE
  8
0
 10
-64.51
 11
-65
 20
-66.145
 21
-66.2
  0
LINE
  8
0
 10
-65
 11
-65.49
 20
-66.2
 21
-66.145
  0
LINE
  8
0
 10
-65.49
 11
-65.955
 20
-66.145
 21
-65.982
  0
LINE
  8
0
 10
-65.955
 11
-66.372
 20
-65.982
 21
-65.72
  0
LINE
  8
0
 10
-66.372
 11
-66.72
 20
-65.72
 21
-65.372
  0
LINE
  8
0
 10
-66.72
 11
-66.982
 20
-65.372
 21
-64.955
  0
LINE
  8
0
 10
-66.982
 11
-67.145
 20
-64.955
 21
-64.49
  0
LINE
  8
0
 10
-67.145
 11
-67.2
 20
-64.49
 21
-64
  0
LINE
  8
0
 10
-67.2
 11
-67.145
 20
88
 21
88.49
  0
LINE
  8
0
 10
-67.145
 11
-66.982
 20
88.49
 21
88.955
  0
LINE
  8
0
 10
-66.982
 11
-66.72
 20
88.955
 21
89.372
  0
LINE
  8
0
 10
-66.72
 11
-66.372
 20
89.372
 21
89.72
  0
LINE
  8
0
 10
-66.372
 11
-65.955
 20
89.72
 21
89.982
  0
LINE
  8
0
 10
-65.955
 11
-65.49
 20
89.982
 21
90.145
  0
LINE
  8
0
 10
-65.49
 11
-65
 20
90.145
 21
90.2
  0
LINE
  8
0
 10
-65
 11
-64.51
 20
90.2
 21
90.145
  0
LINE
  8
0
 10
-64.51
 11
-64.045
 20
90.145
 21
89.982
  0
LINE
  8
0
 10
-64.045
 11
-63.628
 20
89.982
 21
89.72
  0
LINE
  8
0
 10
-63.628
 11
-63.28
 20
89.72
 21
89.372
  0
LINE
  8
0
 10
-63.28
 11
-63.018
 20
89.372
 21
88.955
  0
LINE
  8
0
 10
-63.018
 11
-62.855
 20
88.955
 21
88.49
  0
LINE
  8
0
 10
-62.855
 11
-62.8
 20
88.49
 21
88
  0
LINE
  8
0
 10
-62.8
 11
-62.855
 20
88
 21
87.51
  0
LINE
  8
0
 10
-62.855
 11
-63.018
 20
87.51
 21
87.045
  0
LINE
  8
0
 10
-63.018
 11
-63.28
 20
87.045
 21
86.628
  0
LINE
  8
0
 10
-63.28
 11
-63.628
 20
86.628
 21
86.28
  0
LINE
  8
0
 10
-63.628
 11
-64.045
 20
86.28
 21
86.018
  0
LINE
  8
0
 10
-64.045
 11
-64.51
 20
86.018
 21
85.855
  0
LINE
  8
0
 10
-64.51
 11
-65
 20
85.855
 21
85.8
  0
LINE
  8
0
 10
-65
 11
-65.49
 20
85.8
 21
85.855
  0
LINE
  8
0
 10
-65.49
 11
-65.955
 20
85.855
 21
86.018
  0
LINE
  8
0
 10
-65.955
 11
-66.372
 20
86.018
 21
86.28
  0
LINE
  8
0
 10
-66.372
 11
-66.72
 20
86.28
 21
86.628
  0
LINE
  8
0
 10
-66.72
 11
-66.982
 20
86.628
 21
87.045
  0
LINE
  8
0
 10
-66.982
 11
-67.145
 20
87.045
 21
87.51
  0
LINE
  8
0
 10
-67.145
 11
-67.2
 20
87.51
 21
88
  0
LINE
  8
0
 10
-33.16
 11
-33.087
 20
-53.675
 21
-53.188
  0
LINE
  8
0
 10
-33.087
 11
-32.873
 20
-53.188
 21
-52.745
  0
LINE
  8
0
 10
-32.873
 11
-32.539
 20
-52.745
 21
-52.385
  0
LINE
  8
0
 10
-32.539
 11
-32.113
 20
-52.385
 21
-52.139
  0
LINE
  8
0
 10
-32.113
 11
-31.633
 20
-52.139
 21
-52.029
  0
LINE
  8
0
 10
-31.633
 11
-31.143
 20
-52.029
 21
-52.066
  0
LINE
  8
0
 10
-31.143
 11
-30.685
 20
-52.066
 21
-52.246
  0
LINE
  8
0
 10
-30.685
 11
-30.3
 20
-52.246
 21
-52.552
  0
LINE
  8
0
 10
-30.3
 11
-30.023
 20
-52.552
 21
-52.959
  0
LINE
  8
0
 10
-30.023
 11
-29.878
 20
-52.959
 21
-53.429
  0
LINE
  8
0
 10
-29.878
 11
-29.878
 20
-53.429
 21
-53.921
  0
LINE
  8
0
 10
-29.878
 11
-30.023
 20
-53.921
 21
-54.39
  0
LINE
  8
0
 10
-30.023
 11
-30.3
 20
-54.39
 21
-54.797
  0
LINE
  8
0
 10
-30.3
 11
-30.685
 20
-54.797
 21
-55.104
  0
LINE
  8
0
 10
-30.685
 11
-31.143
 20
-55.104
 21
-55.283
  0
LINE
  8
0
 10
-31.143
 11
-31.633
 20
-55.283
 21
-55.32
  0
LINE
  8
0
 10
-31.633
 11
-32.113
 20
-55.32
 21
-55.211
  0
LINE
  8
0
 10
-32.113
 11
-32.539
 20
-55.211
 21
-54.965
  0
LINE
  8
0
 10
-32.539
 11
-32.873
 20
-54.965
 21
-54.604
  0
LINE
  8
0
 10
-32.873
 11
-33.087
 20
-54.604
 21
-54.161
  0
LINE
  8
0
 10
-33.087
 11
-33.16
 20
-54.161
 21
-53.675
  0
LINE
  8
0
 10
-33.16
 11
-33.087
 20
-39.025
 21
-38.539
  0
LINE
  8
0
 10
-33.087
 11
-32.873
 20
-38.539
 21
-38.096
  0
LINE
  8
0
 10
-32.873
 11
-32.539
 20
-38.096
 21
-37.735
  0
LINE
  8
0
 10
-32.539
 11
-32.113
 20
-37.735
 21
-37.489
  0
LINE
  8
0
 10
-32.113
 11
-31.633
 20
-37.489
 21
-37.38
  0
LINE
  8
0
 10
-31.633
 11
-31.143
 20
-37.38
 21
-37.417
  0
LINE
  8
0
 10
-31.143
 11
-30.685
 20
-37.417
 21
-37.596
  0
LINE
  8
0
 10
-30.685
 11
-30.3
 20
-37.596
 21
-37.903
  0
LINE
  8
0
 10
-30.3
 11
-30.023
 20
-37.903
 21
-38.31
  0
LINE
  8
0
 10
-30.023
 11
-29.878
 20
-38.31
 21
-38.779
  0
LINE
  8
0
 10
-29.878
 11
-29.878
 20
-38.779
 21
-39.271
  0
LINE
  8
0
 10
-29.878
 11
-30.023
 20
-39.271
 21
-39.741
  0
LINE
  8
0
 10
-30.023
 11
-30.3
 20
-39.741
 21
-40.148
  0
LINE
  8
0
 10
-30.3
 11
-30.685
 20
-40.148
 21
-40.454
  0
LINE
  8
0
 10
-30.685
 11
-31.143
 20
-40.454
 21
-40.634
  0
LINE
  8
0
 10
-31.143
 11
-31.633
 20
-40.634
 21
-40.671
  0
LINE
  8
0
 10
-31.633
 11
-32.113
 20
-40.671
 21
-40.561
  0
LINE
  8
0
 10
-32.113
 11
-32.539
 20
-40.561
 21
-40.315
  0
LINE
  8
0
 10
-32.539
 11
-32.873
 20
-40.315
 21
-39.955
  0
LINE
  8
0
 10
-32.873
 11
-33.087
 20
-39.955
 21
-39.512
  0
LINE
  8
0
 10
-33.087
 11
-33.16
 20
-39.512
 21
-39.025
  0
LINE
  8
0
 10
-33.142
 11
-33.142
 20
34.929
 21
35.421
  0
LINE
  8
0
 10
-33.142
 11
-32.997
 20
35.421
 21
35.891
  0
LINE
  8
0
 10
-32.997
 11
-32.72
 20
35.891
 21
36.298
  0
LINE
  8
0
 10
-32.72
 11
-32.335
 20
36.298
 21
36.604
  0
LINE
  8
0
 10
-32.335
 11
-31.877
 20
36.604
 21
36.784
  0
LINE
  8
0
 10
-31.877
 11
-31.387
 20
36.784
 21
36.821
  0
LINE
  8
0
 10
-31.387
 11
-30.907
 20
36.821
 21
36.711
  0
LINE
  8
0
 10
-30.907
 11
-30.481
 20
36.711
 21
36.465
  0
LINE
  8
0
 10
-30.481
 11
-30.147
 20
36.465
 21
36.105
  0
LINE
  8
0
 10
-30.147
 11
-29.933
 20
36.105
 21
35.662
  0
LINE
  8
0
 10
-29.933
 11
-29.86
 20
35.662
 21
35.175
  0
LINE
  8
0
 10
-29.86
 11
-29.933
 20
35.175
 21
34.689
  0
LINE
  8
0
 10
-29.933
 11
-30.147
 20
34.689
 21
34.246
  0
LINE
  8
0
 10
-30.147
 11
-30.481
 20
34.246
 21
33.885
  0
LINE
  8
0
 10
-30.481
 11
-30.907
 20
33.885
 21
33.639
  0
LINE
  8
0
 10
-30.907
 11
-31.387
 20
33.639
 21
33.53
  0
LINE
  8
0
 10
-31.387
 11
-31.877
 20
33.53
 21
33.567
  0
LINE
  8
0
 10
-31.877
 11
-32.335
 20
33.567
 21
33.746
  0
LINE
  8
0
 10
-32.335
 11
-32.72
 20
33.746
 21
34.053
  0
LINE
  8
0
 10
-32.72
 11
-32.997
 20
34.053
 21
34.46
  0
LINE
  8
0
 10
-32.997
 11
-33.142
 20
34.46
 21
34.929
  0
LINE
  8
0
 10
-33.142
 11
-33.142
 20
49.579
 21
50.071
  0
LINE
  8
0
 10
-33.142
 11
-32.997
 20
50.071
 21
50.54
  0
LINE
  8
0
 10
-32.997
 11
-32.72
 20
50.54
 21
50.947
  0
LINE
  8
0
 10
-32.72
 11
-32.335
 20
50.947
 21
51.254
  0
LINE
  8
0
 10
-32.335
 11
-31.877
 20
51.254
 21
51.433
  0
LINE
  8
0
 10
-31.877
 11
-31.387
 20
51.433
 21
51.47
  0
LINE
  8
0
 10
-31.387
 11
-30.907
 20
51.47
 21
51.361
  0
LINE
  8
0
 10
-30.907
 11
-30.481
 20
51.361
 21
51.115
  0
LINE
  8
0
 10
-30.481
 11
-30.147
 20
51.115
 21
50.754
  0
LINE
  8
0
 10
-30.147
 11
-29.933
 20
50.754
 21
50.311
  0
LINE
  8
0
 10
-29.933
 11
-29.86
 20
50.311
 21
49.825
  0
LINE
  8
0
 10
-29.86
 11
-29.933
 20
49.825
 21
49.338
  0
LINE
  8
0
 10
-29.933
 11
-30.147
 20
49.338
 21
48.895
  0
LINE
  8
0
 10
-30.147
 11
-30.481
 20
48.895
 21
48.535
  0
LINE
  8
0
 10
-30.481
 11
-30.907
 20
48.535
 21
48.289
  0
LINE
  8
0
 10
-30.907
 11
-31.387
 20
48.289
 21
48.179
  0
LINE
  8
0
 10
-31.387
 11
-31.877
 20
48.179
 21
48.216
  0
LINE
  8
0
 10
-31.877
 11
-32.335
 20
48.216
 21
48.396
  0
LINE
  8
0
 10
-32.335
 11
-32.72
 20
48.396
 21
48.702
  0
LINE
  8
0
 10
-32.72
 11
-32.997
 20
48.702
 21
49.109
  0
LINE
  8
0
 10
-32.997
 11
-33.142
 20
49.109
 21
49.579
  0
LINE
  8
0
 10
-23.41
 11
-23.355
 20
96.8
 21
97.29
  0
LINE
  8
0
 10
-23.355
 11
-23.192
 20
97.29
 21
97.755
  0
LINE
  8
0
 10
-23.192
 11
-22.93
 20
97.755
 21
98.172
  0
LINE
  8
0
 10
-22.93
 11
-22.582
 20
98.172
 21
98.52
  0
LINE
  8
0
 10
-22.582
 11
-22.165
 20
98.52
 21
98.782
  0
LINE
  8
0
 10
-22.165
 11
-21.7
 20
98.782
 21
98.945
  0
LINE
  8
0
 10
-21.7
 11
-21.21
 20
98.945
 21
99
  0
LINE
  8
0
 10
-21.21
 11
-20.72
 20
99
 21
98.945
  0
LINE
  8
0
 10
-20.72
 11
-20.255
 20
98.945
 21
98.782
  0
LINE
  8
0
 10
-20.255
 11
-19.838
 20
98.782
 21
98.52
  0
LINE
  8
0
 10
-19.838
 11
-19.49
 20
98.52
 21
98.172
  0
LINE
  8
0
 10
-19.49
 11
-19.228
 20
98.172
 21
97.755
  0
LINE
  8
0
 10
-19.228
 11
-19.065
 20
97.755
 21
97.29
  0
LINE
  8
0
 10
-19.065
 11
-19.01
 20
97.29
 21
96.8
  0
LINE
  8
0
 10
-19.01
 11
-19.065
 20
96.8
 21
96.31
  0
LINE
  8
0
 10
-19.065
 11
-19.228
 20
96.31
 21
95.845
  0
LINE
  8
0
 10
-19.228
 11
-19.49
 20
95.845
 21
95.428
  0
LINE
  8
0
 10
-19.49
 11
-19.838
 20
95.428
 21
95.08
  0
LINE
  8
0
 10
-19.838
 11
-20.255
 20
95.08
 21
94.818
  0
LINE
  8
0
 10
-20.255
 11
-20.72
 20
94.818
 21
94.655
  0
LINE
  8
0
 10
-20.72
 11
-21.21
 20
94.655
 21
94.6
  0
LINE
  8
0
 10
-21.21
 11
-21.7
 20
94.6
 21
94.655
  0
LINE
  8
0
 10
-21.7
 11
-22.165
 20
94.655
 21
94.818
  0
LINE
  8
0
 10
-22.165
 11
-22.582
 20
94.818
 21
95.08
  0
LINE
  8
0
 10
-22.582
 11
-22.93
 20
95.08
 21
95.428
  0
LINE
  8
0
 10
-22.93
 11
-23.192
 20
95.428
 21
95.845
  0
LINE
  8
0
 10
-23.192
 11
-23.355
 20
95.845
 21
96.31
  0
LINE
  8
0
 10
-23.355
 11
-23.41
 20
96.31
 21
96.8
  0
LINE
  8
0
 10
19.01
 11
19.065
 20
96.8
 21
97.29
  0
LINE
  8
0
 10
19.065
 11
19.228
 20
97.29
 21
97.755
  0
LINE
  8
0
 10
19.228
 11
19.49
 20
97.755
 21
98.172
  0
LINE
  8
0
 10
19.49
 11
19.838
 20
98.172
 21
98.52
  0
LINE
  8
0
 10
19.838
 11
20.255
 20
98.52
 21
98.782
  0
LINE
  8
0
 10
20.255
 11
20.72
 20
98.782
 21
98.945
  0
LINE
  8
0
 10
20.72
 11
21.21
 20
98.945
 21
99
  0
LINE
  8
0
 10
21.21
 11
21.7
 20
99
 21
98.945
  0
LINE
  8
0
 10
21.7
 11
22.165
 20
98.945
 21
98.782
  0
LINE
  8
0
 10
22.165
 11
22.582
 20
98.782
 21
98.52
  0
LINE
  8
0
 10
22.582
 11
22.93
 20
98.52
 21
98.172
  0
LINE
  8
0
 10
22.93
 11
23.192
 20
98.172
 21
97.755
  0
LINE
  8
0
 10
23.192
 11
23.355
 20
97.755
 21
97.29
  0
LINE
  8
0
 10
23.355
 11
23.41
 20
97.29
 21
96.8
  0
LINE
  8
0
 10
23.41
 11
23.355
 20
96.8
 21
96.31
  0
LINE
  8
0
 10
23.355
 11
23.192
 20
96.31
 21
95.845
  0
LINE
  8
0
 10
23.192
 11
22.93
 20
95.845
 21
95.428
  0
LINE
  8
0
 10
22.93
 11
22.582
 20
95.428
 21
95.08
  0
LINE
  8
0
 10
22.582
 11
22.165
 20
95.08
 21
94.818
  0
LINE
  8
0
 10
22.165
 11
21.7
 20
94.818
 21
94.655
  0
LINE
  8
0
 10
21.7
 11
21.21
 20
94.655
 21
94.6
  0
LINE
  8
0
 10
21.21
 11
20.72
 20
94.6
 21
94.655
  0
LINE
  8
0
 10
20.72
 11
20.255
 20
94.655
 21
94.818
  0
LINE
  8
0
 10
20.255
 11
19.838
 20
94.818
 21
95.08
  0
LINE
  8
0
 10
19.838
 11
19.49
 20
95.08
 21
95.428
  0
LINE
  8
0
 10
19.49
 11
19.228
 20
95.428
 21
95.845
  0
LINE
  8
0
 10
19.228
 11
19.065
 20
95.845
 21
96.31
  0
LINE
  8
0
 10
19.065
 11
19.01
 20
96.31
 21
96.8
  0
LINE
  8
0
 10
62.8
 11
62.855
 20
-12
 21
-11.51
  0
LINE
  8
0
 10
62.855
 11
63.018
 20
-11.51
 21
-11.045
  0
LINE
  8
0
 10
63.018
 11
63.28
 20
-11.045
 21
-10.628
  0
LINE
  8
0
 10
63.28
 11
63.628
 20
-10.628
 21
-10.28
  0
LINE
  8
0
 10
63.628
 11
64.045
 20
-10.28
 21
-10.018
  0
LINE
  8
0
 10
64.045
 11
64.51
 20
-10.018
 21
-9.855
  0
LINE
  8
0
 10
64.51
 11
65
 20
-9.855
 21
-9.8
  0
LINE
  8
0
 10
65
 11
65.49
 20
-9.8
 21
-9.855
  0
LINE
  8
0
 10
65.49
 11
65.955
 20
-9.855
 21
-10.018
  0
LINE
  8
0
 10
65.955
 11
66.372
 20
-10.018
 21
-10.28
  0
LINE
  8
0
 10
66.372
 11
66.72
 20
-10.28
 21
-10.628
  0
LINE
  8
0
 10
66.72
 11
66.982
 20
-10.628
 21
-11.045
  0
LINE
  8
0
 10
66.982
 11
67.145
 20
-11.045
 21
-11.51
  0
LINE
  8
0
 10
67.145
 11
67.2
 20
-11.51
 21
-12
  0
LINE
  8
0
 10
67.2
 11
67.145
 20
-12
 21
-12.49
  0
LINE
  8
0
 10
67.145
 11
66.982
 20
-12.49
 21
-12.955
  0
LINE
  8
0
 10
66.982
 11
66.72
 20
-12.955
 21
-13.372
  0
LINE
  8
0
 10
66.72
 11
66.372
 20
-13.372
 21
-13.72
  0
LINE
  8
0
 10
66.372
 11
65.955
 20
-13.72
 21
-13.982
  0
LINE
  8
0
 10
65.955
 11
65.49
 20
-13.982
 21
-14.145
  0
LINE
  8
0
 10
65.49
 11
65
 20
-14.145
 21
-14.2
  0
LINE
  8
0
 10
65
 11
64.51
 20
-14.2
 21
-14.145
  0
LINE
  8
0
 10
64.51
 11
64.045
 20
-14.145
 21
-13.982
  0
LINE
  8
0
 10
64.045
 11
63.628
 20
-13.982
 21
-13.72
  0
LINE
  8
0
 10
63.628
 11
63.28
 20
-13.72
 21
-13.372
  0
LINE
  8
0
 10
63.28
 11
63.018
 20
-13.372
 21
-12.955
  0
LINE
  8
0
 10
63.018
 11
62.855
 20
-12.955
 21
-12.49
  0
LINE
  8
0
 10
62.855
 11
62.8
 20
-12.49
 21
-12
  0
LINE
  8
0
 10
99.8
 11
99.855
 20
12
 21
12.49
  0
LINE
  8
0
 10
99.855
 11
100.018
 20
12.49
 21
12.955
  0
LINE
  8
0
 10
100.018
 11
100.28
 20
12.955
 21
13.372
  0
LINE
  8
0
 10
100.28
 11
100.628
 20
13.372
 21
13.72
  0
LINE
  8
0
 10
100.628
 11
101.045
 20
13.72
 21
13.982
  0
LINE
  8
0
 10
101.045
 11
101.51
 20
13.982
 21
14.145
  0
LINE
  8
0
 10
101.51
 11
102
 20
14.145
 21
14.2
  0
LINE
  8
0
 10
102
 11
102.49
 20
14.2
 21
14.145
  0
LINE
  8
0
 10
102.49
 11
102.955
 20
14.145
 21
13.982
  0
LINE
  8
0
 10
102.955
 11
103.372
 20
13.982
 21
13.72
  0
LINE
  8
0
 10
103.372
 11
103.72
 20
13.72
 21
13.372
  0
LINE
  8
0
 10
103.72
 11
103.982
 20
13.372
 21
12.955
  0
LINE
  8
0
 10
103.982
 11
104.145
 20
12.955
 21
12.49
  0
LINE
  8
0
 10
104.145
 11
104.2
 20
12.49
 21
12
  0
LINE
  8
0
 10
104.2
 11
104.145
 20
12
 21
11.51
  0
LINE
  8
0
 10
104.145
 11
103.982
 20
11.51
 21
11.045
  0
LINE
  8
0
 10
103.982
 11
103.72
 20
11.045
 21
10.628
  0
LINE
  8
0
 10
103.72
 11
103.372
 20
10.628
 21
10.28
  0
LINE
  8
0
 10
103.372
 11
102.955
 20
10.28
 21
10.018
  0
LINE
  8
0
 10
102.955
 11
102.49
 20
10.018
 21
9.855
  0
LINE
  8
0
 10
102.49
 11
102
 20
9.855
 21
9.8
  0
LINE
  8
0
 10
102
 11
101.51
 20
9.8
 21
9.855
  0
LINE
  8
0
 10
101.51
 11
101.045
 20
9.855
 21
10.018
  0
LINE
  8
0
 10
101.045
 11
100.628
 20
10.018
 21
10.28
  0
LINE
  8
0
 10
100.628
 11
100.28
 20
10.28
 21
10.628
  0
LINE
  8
0
 10
100.28
 11
100.018
 20
10.628
 21
11.045
  0
LINE
  8
0
 10
100.018
 11
99.855
 20
11.045
 21
11.51
  0
LINE
  8
0
 10
99.855
 11
99.8
 20
11.51
 21
12
  0
LINE
  8
0
 10
103.25
 11
103.345
 20
-104.5
 21
-104.022
  0
LINE
  8
0
 10
103.345
 11
103.616
 20
-104.022
 21
-103.616
  0
LINE
  8
0
 10
103.616
 11
104.022
 20
-103.616
 21
-103.345
  0
LINE
  8
0
 10
104.022
 11
104.5
 20
-103.345
 21
-103.25
  0
LINE
  8
0
 10
104.5
 11
104.978
 20
-103.25
 21
-103.345
  0
LINE
  8
0
 10
104.978
 11
105.384
 20
-103.345
 21
-103.616
  0
LINE
  8
0
 10
105.384
 11
105.655
 20
-103.616
 21
-104.022
  0
LINE
  8
0
 10
105.655
 11
105.75
 20
-104.022
 21
-104.5
  0
LINE
  8
0
 10
105.75
 11
105.655
 20
-104.5
 21
-104.978
  0
LINE
  8
0
 10
105.655
 11
105.384
 20
-104.978
 21
-105.384
  0
LINE
  8
0
 10
105.384
 11
104.978
 20
-105.384
 21
-105.655
  0
LINE
  8
0
 10
104.978
 11
104.5
 20
-105.655
 21
-105.75
  0
LINE
  8
0
 10
104.5
 11
104.022
 20
-105.75
 21
-105.655
  0
LINE
  8
0
 10
104.022
 11
103.616
 20
-105.655
 21
-105.384
  0
LINE
  8
0
 10
103.616
 11
103.345
 20
-105.384
 21
-104.978
  0
LINE
  8
0
 10
103.345
 11
103.25
 20
-104.978
 21
-104.5
  0
LINE
  8
0
 10
103.25
 11
103.345
 20
104.5
 21
104.978
  0
LINE
  8
0
 10
103.345
 11
103.616
 20
104.978
 21
105.384
  0
LINE
  8
0
 10
103.616
 11
104.022
 20
105.384
 21
105.655
  0
LINE
  8
0
 10
104.022
 11
104.5
 20
105.655
 21
105.75
  0
LINE
  8
0
 10
104.5
 11
104.978
 20
105.75
 21
105.655
  0
LINE
  8
0
 10
104.978
 11
105.384
 20
105.655
 21
105.384
  0
LINE
  8
0
 10
105.384
 11
105.655
 20
105.384
 21
104.978
  0
LINE
  8
0
 10
105.655
 11
105.75
 20
104.978
 21
104.5
  0
LINE
  8
0
 10
105.75
 11
105.655
 20
104.5
 21
104.022
  0
LINE
  8
0
 10
105.655
 11
105.384
 20
104.022
 21
103.616
  0
LINE
  8
0
 10
105.384
 11
104.978
 20
103.616
 21
103.345
  0
LINE
  8
0
 10
104.978
 11
104.5
 20
103.345
 21
103.25
  0
LINE
  8
0
 10
104.5
 11
104.022
 20
103.25
 21
103.345
  0
LINE
  8
0
 10
104.022
 11
103.616
 20
103.345
 21
103.616
  0
LINE
  8
0
 10
103.616
 11
103.345
 20
103.616
 21
104.022
  0
LINE
  8
0
 10
103.345
 11
103.25
 20
104.022
 21
104.5
  0
ENDSEC
  0
SECTION
  2
OBJECTS
  0
DICTIONARY
  0
ENDSEC
  0
EOF
