  0
SECTION
  2
BLOCKS
  0
ENDSEC
  0
SECTION
  2
ENTITIES
  0
LINE
  8
0
 10
0
 11
0
 20
0
 21
170
  0
LINE
  8
0
 10
0
 11
299
 20
170
 21
170
  0
LINE
  8
0
 10
299
 11
301.179
 20
170
 21
169.905
  0
LINE
  8
0
 10
301.179
 11
303.341
 20
169.905
 21
169.62
  0
LINE
  8
0
 10
303.341
 11
305.47
 20
169.62
 21
169.148
  0
LINE
  8
0
 10
305.47
 11
307.551
 20
169.148
 21
168.492
  0
LINE
  8
0
 10
307.551
 11
309.565
 20
168.492
 21
167.658
  0
LINE
  8
0
 10
309.565
 11
311.5
 20
167.658
 21
166.651
  0
LINE
  8
0
 10
311.5
 11
313.339
 20
166.651
 21
165.479
  0
LINE
  8
0
 10
313.339
 11
315.07
 20
165.479
 21
164.151
  0
LINE
  8
0
 10
315.07
 11
316.678
 20
164.151
 21
162.678
  0
LINE
  8
0
 10
316.678
 11
318.151
 20
162.678
 21
161.07
  0
LINE
  8
0
 10
318.151
 11
319.479
 20
161.07
 21
159.339
  0
LINE
  8
0
 10
319.479
 11
320.651
 20
159.339
 21
157.5
  0
LINE
  8
0
 10
320.651
 11
321.658
 20
157.5
 21
155.565
  0
LINE
  8
0
 10
321.658
 11
322.492
 20
155.565
 21
153.551
  0
LINE
  8
0
 10
322.492
 11
323.148
 20
153.551
 21
151.47
  0
LINE
  8
0
 10
323.148
 11
323.62
 20
151.47
 21
149.341
  0
LINE
  8
0
 10
323.62
 11
323.905
 20
149.341
 21
147.179
  0
LINE
  8
0
 10
323.905
 11
324
 20
147.179
 21
145
  0
LINE
  8
0
 10
324
 11
324
 20
145
 21
0
  0
LINE
  8
0
 10
324
 11
0
 20
0
 21
0
  0
LINE
  8
0
 10
5
 11
5.048
 20
18.9
 21
19.388
  0
LINE
  8
0
 10
5.048
 11
5.19
 20
19.388
 21
19.857
  0
LINE
  8
0
 10
5.19
 11
5.421
 20
19.857
 21
20.289
  0
LINE
  8
0
 10
5.421
 11
5.732
 20
20.289
 21
20.668
  0
LINE
  8
0
 10
5.732
 11
6.111
 20
20.668
 21
20.979
  0
LINE
  8
0
 10
6.111
 11
6.543
 20
20.979
 21
21.21
  0
LINE
  8
0
 10
6.543
 11
7.012
 20
21.21
 21
21.352
  0
LINE
  8
0
 10
7.012
 11
7.5
 20
21.352
 21
21.4
  0
LINE
  8
0
 10
7.5
 11
7.988
 20
21.4
 21
21.352
  0
LINE
  8
0
 10
7.988
 11
8.457
 20
21.352
 21
21.21
  0
LINE
  8
0
 10
8.457
 11
8.889
 20
21.21
 21
20.979
  0
LINE
  8
0
 10
8.889
 11
9.268
 20
20.979
 21
20.668
  0
LINE
  8
0
 10
9.268
 11
9.579
 20
20.668
 21
20.289
  0
LINE
  8
0
 10
9.579
 11
9.81
 20
20.289
 21
19.857
  0
LINE
  8
0
 10
9.81
 11
9.952
 20
19.857
 21
19.388
  0
LINE
  8
0
 10
9.952
 11
10
 20
19.388
 21
18.9
  0
LINE
  8
0
 10
10
 11
9.952
 20
18.9
 21
18.412
  0
LINE
  8
0
 10
9.952
 11
9.81
 20
18.412
 21
17.943
  0
LINE
  8
0
 10
9.81
 11
9.579
 20
17.943
 21
17.511
  0
LINE
  8
0
 10
9.579
 11
9.268
 20
17.511
 21
17.132
  0
LINE
  8
0
 10
9.268
 11
8.889
 20
17.132
 21
16.821
  0
LINE
  8
0
 10
8.889
 11
8.457
 20
16.821
 21
16.59
  0
LINE
  8
0
 10
8.457
 11
7.988
 20
16.59
 21
16.448
  0
LINE
  8
0
 10
7.988
 11
7.5
 20
16.448
 21
16.4
  0
LINE
  8
0
 10
7.5
 11
7.012
 20
16.4
 21
16.448
  0
LINE
  8
0
 10
7.012
 11
6.543
 20
16.448
 21
16.59
  0
LINE
  8
0
 10
6.543
 11
6.111
 20
16.59
 21
16.821
  0
LINE
  8
0
 10
6.111
 11
5.732
 20
16.821
 21
17.132
  0
LINE
  8
0
 10
5.732
 11
5.421
 20
17.132
 21
17.511
  0
LINE
  8
0
 10
5.421
 11
5.19
 20
17.511
 21
17.943
  0
LINE
  8
0
 10
5.19
 11
5.048
 20
17.943
 21
18.412
  0
LINE
  8
0
 10
5.048
 11
5
 20
18.412
 21
18.9
  0
LINE
  8
0
 10
5
 11
5.048
 20
28.9
 21
29.388
  0
LINE
  8
0
 10
5.048
 11
5.19
 20
29.388
 21
29.857
  0
LINE
  8
0
 10
5.19
 11
5.421
 20
29.857
 21
30.289
  0
LINE
  8
0
 10
5.421
 11
5.732
 20
30.289
 21
30.668
  0
LINE
  8
0
 10
5.732
 11
6.111
 20
30.668
 21
30.979
  0
LINE
  8
0
 10
6.111
 11
6.543
 20
30.979
 21
31.21
  0
LINE
  8
0
 10
6.543
 11
7.012
 20
31.21
 21
31.352
  0
LINE
  8
0
 10
7.012
 11
7.5
 20
31.352
 21
31.4
  0
LINE
  8
0
 10
7.5
 11
7.988
 20
31.4
 21
31.352
  0
LINE
  8
0
 10
7.988
 11
8.457
 20
31.352
 21
31.21
  0
LINE
  8
0
 10
8.457
 11
8.889
 20
31.21
 21
30.979
  0
LINE
  8
0
 10
8.889
 11
9.268
 20
30.979
 21
30.668
  0
LINE
  8
0
 10
9.268
 11
9.579
 20
30.668
 21
30.289
  0
LINE
  8
0
 10
9.579
 11
9.81
 20
30.289
 21
29.857
  0
LINE
  8
0
 10
9.81
 11
9.952
 20
29.857
 21
29.388
  0
LINE
  8
0
 10
9.952
 11
10
 20
29.388
 21
28.9
  0
LINE
  8
0
 10
10
 11
9.952
 20
28.9
 21
28.412
  0
LINE
  8
0
 10
9.952
 11
9.81
 20
28.412
 21
27.943
  0
LINE
  8
0
 10
9.81
 11
9.579
 20
27.943
 21
27.511
  0
LINE
  8
0
 10
9.579
 11
9.268
 20
27.511
 21
27.132
  0
LINE
  8
0
 10
9.268
 11
8.889
 20
27.132
 21
26.821
  0
LINE
  8
0
 10
8.889
 11
8.457
 20
26.821
 21
26.59
  0
LINE
  8
0
 10
8.457
 11
7.988
 20
26.59
 21
26.448
  0
LINE
  8
0
 10
7.988
 11
7.5
 20
26.448
 21
26.4
  0
LINE
  8
0
 10
7.5
 11
7.012
 20
26.4
 21
26.448
  0
LINE
  8
0
 10
7.012
 11
6.543
 20
26.448
 21
26.59
  0
LINE
  8
0
 10
6.543
 11
6.111
 20
26.59
 21
26.821
  0
LINE
  8
0
 10
6.111
 11
5.732
 20
26.821
 21
27.132
  0
LINE
  8
0
 10
5.732
 11
5.421
 20
27.132
 21
27.511
  0
LINE
  8
0
 10
5.421
 11
5.19
 20
27.511
 21
27.943
  0
LINE
  8
0
 10
5.19
 11
5.048
 20
27.943
 21
28.412
  0
LINE
  8
0
 10
5.048
 11
5
 20
28.412
 21
28.9
  0
LINE
  8
0
 10
5
 11
5.058
 20
38.4
 21
38.879
  0
LINE
  8
0
 10
5.058
 11
5.229
 20
38.879
 21
39.329
  0
LINE
  8
0
 10
5.229
 11
5.503
 20
39.329
 21
39.726
  0
LINE
  8
0
 10
5.503
 11
5.864
 20
39.726
 21
40.046
  0
LINE
  8
0
 10
5.864
 11
6.291
 20
40.046
 21
40.27
  0
LINE
  8
0
 10
6.291
 11
6.759
 20
40.27
 21
40.385
  0
LINE
  8
0
 10
6.759
 11
7.241
 20
40.385
 21
40.385
  0
LINE
  8
0
 10
7.241
 11
7.709
 20
40.385
 21
40.27
  0
LINE
  8
0
 10
7.709
 11
8.136
 20
40.27
 21
40.046
  0
LINE
  8
0
 10
8.136
 11
8.497
 20
40.046
 21
39.726
  0
LINE
  8
0
 10
8.497
 11
8.771
 20
39.726
 21
39.329
  0
LINE
  8
0
 10
8.771
 11
8.942
 20
39.329
 21
38.879
  0
LINE
  8
0
 10
8.942
 11
9
 20
38.879
 21
38.4
  0
LINE
  8
0
 10
9
 11
8.942
 20
38.4
 21
37.921
  0
LINE
  8
0
 10
8.942
 11
8.771
 20
37.921
 21
37.471
  0
LINE
  8
0
 10
8.771
 11
8.497
 20
37.471
 21
37.074
  0
LINE
  8
0
 10
8.497
 11
8.136
 20
37.074
 21
36.754
  0
LINE
  8
0
 10
8.136
 11
7.709
 20
36.754
 21
36.53
  0
LINE
  8
0
 10
7.709
 11
7.241
 20
36.53
 21
36.415
  0
LINE
  8
0
 10
7.241
 11
6.759
 20
36.415
 21
36.415
  0
LINE
  8
0
 10
6.759
 11
6.291
 20
36.415
 21
36.53
  0
LINE
  8
0
 10
6.291
 11
5.864
 20
36.53
 21
36.754
  0
LINE
  8
0
 10
5.864
 11
5.503
 20
36.754
 21
37.074
  0
LINE
  8
0
 10
5.503
 11
5.229
 20
37.074
 21
37.471
  0
LINE
  8
0
 10
5.229
 11
5.058
 20
37.471
 21
37.921
  0
LINE
  8
0
 10
5.058
 11
5
 20
37.921
 21
38.4
  0
LINE
  8
0
 10
5
 11
5.058
 20
115.38
 21
115.859
  0
LINE
  8
0
 10
5.058
 11
5.229
 20
115.859
 21
116.309
  0
LINE
  8
0
 10
5.229
 11
5.503
 20
116.309
 21
116.706
  0
LINE
  8
0
 10
5.503
 11
5.864
 20
116.706
 21
117.026
  0
LINE
  8
0
 10
5.864
 11
6.291
 20
117.026
 21
117.25
  0
LINE
  8
0
 10
6.291
 11
6.759
 20
117.25
 21
117.365
  0
LINE
  8
0
 10
6.759
 11
7.241
 20
117.365
 21
117.365
  0
LINE
  8
0
 10
7.241
 11
7.709
 20
117.365
 21
117.25
  0
LINE
  8
0
 10
7.709
 11
8.136
 20
117.25
 21
117.026
  0
LINE
  8
0
 10
8.136
 11
8.497
 20
117.026
 21
116.706
  0
LINE
  8
0
 10
8.497
 11
8.771
 20
116.706
 21
116.309
  0
LINE
  8
0
 10
8.771
 11
8.942
 20
116.309
 21
115.859
  0
LINE
  8
0
 10
8.942
 11
9
 20
115.859
 21
115.38
  0
LINE
  8
0
 10
9
 11
8.942
 20
115.38
 21
114.901
  0
LINE
  8
0
 10
8.942
 11
8.771
 20
114.901
 21
114.451
  0
LINE
  8
0
 10
8.771
 11
8.497
 20
114.451
 21
114.054
  0
LINE
  8
0
 10
8.497
 11
8.136
 20
114.054
 21
113.734
  0
LINE
  8
0
 10
8.136
 11
7.709
 20
113.734
 21
113.51
  0
LINE
  8
0
 10
7.709
 11
7.241
 20
113.51
 21
113.395
  0
LINE
  8
0
 10
7.241
 11
6.759
 20
113.395
 21
113.395
  0
LINE
  8
0
 10
6.759
 11
6.291
 20
113.395
 21
113.51
  0
LINE
  8
0
 10
6.291
 11
5.864
 20
113.51
 21
113.734
  0
LINE
  8
0
 10
5.864
 11
5.503
 20
113.734
 21
114.054
  0
LINE
  8
0
 10
5.503
 11
5.229
 20
114.054
 21
114.451
  0
LINE
  8
0
 10
5.229
 11
5.058
 20
114.451
 21
114.901
  0
LINE
  8
0
 10
5.058
 11
5
 20
114.901
 21
115.38
  0
LINE
  8
0
 10
5
 11
5.036
 20
125.88
 21
126.378
  0
LINE
  8
0
 10
5.036
 11
5.142
 20
126.378
 21
126.866
  0
LINE
  8
0
 10
5.142
 11
5.316
 20
126.866
 21
127.334
  0
LINE
  8
0
 10
5.316
 11
5.556
 20
127.334
 21
127.772
  0
LINE
  8
0
 10
5.556
 11
5.855
 20
127.772
 21
128.172
  0
LINE
  8
0
 10
5.855
 11
6.208
 20
128.172
 21
128.525
  0
LINE
  8
0
 10
6.208
 11
6.608
 20
128.525
 21
128.824
  0
LINE
  8
0
 10
6.608
 11
7.046
 20
128.824
 21
129.064
  0
LINE
  8
0
 10
7.046
 11
7.514
 20
129.064
 21
129.238
  0
LINE
  8
0
 10
7.514
 11
8.002
 20
129.238
 21
129.344
  0
LINE
  8
0
 10
8.002
 11
8.5
 20
129.344
 21
129.38
  0
LINE
  8
0
 10
8.5
 11
8.998
 20
129.38
 21
129.344
  0
LINE
  8
0
 10
8.998
 11
9.486
 20
129.344
 21
129.238
  0
LINE
  8
0
 10
9.486
 11
9.954
 20
129.238
 21
129.064
  0
LINE
  8
0
 10
9.954
 11
10.392
 20
129.064
 21
128.824
  0
LINE
  8
0
 10
10.392
 11
10.792
 20
128.824
 21
128.525
  0
LINE
  8
0
 10
10.792
 11
11.145
 20
128.525
 21
128.172
  0
LINE
  8
0
 10
11.145
 11
11.444
 20
128.172
 21
127.772
  0
LINE
  8
0
 10
11.444
 11
11.684
 20
127.772
 21
127.334
  0
LINE
  8
0
 10
11.684
 11
11.858
 20
127.334
 21
126.866
  0
LINE
  8
0
 10
11.858
 11
11.964
 20
126.866
 21
126.378
  0
LINE
  8
0
 10
11.964
 11
12
 20
126.378
 21
125.88
  0
LINE
  8
0
 10
12
 11
11.964
 20
125.88
 21
125.382
  0
LINE
  8
0
 10
11.964
 11
11.858
 20
125.382
 21
124.894
  0
LINE
  8
0
 10
11.858
 11
11.684
 20
124.894
 21
124.426
  0
LINE
  8
0
 10
11.684
 11
11.444
 20
124.426
 21
123.988
  0
LINE
  8
0
 10
11.444
 11
11.145
 20
123.988
 21
123.588
  0
LINE
  8
0
 10
11.145
 11
10.792
 20
123.588
 21
123.235
  0
LINE
  8
0
 10
10.792
 11
10.392
 20
123.235
 21
122.936
  0
LINE
  8
0
 10
10.392
 11
9.954
 20
122.936
 21
122.696
  0
LINE
  8
0
 10
9.954
 11
9.486
 20
122.696
 21
122.522
  0
LINE
  8
0
 10
9.486
 11
8.998
 20
122.522
 21
122.416
  0
LINE
  8
0
 10
8.998
 11
8.5
 20
122.416
 21
122.38
  0
LINE
  8
0
 10
8.5
 11
8.002
 20
122.38
 21
122.416
  0
LINE
  8
0
 10
8.002
 11
7.514
 20
122.416
 21
122.522
  0
LINE
  8
0
 10
7.514
 11
7.046
 20
122.522
 21
122.696
  0
LINE
  8
0
 10
7.046
 11
6.608
 20
122.696
 21
122.936
  0
LINE
  8
0
 10
6.608
 11
6.208
 20
122.936
 21
123.235
  0
LINE
  8
0
 10
6.208
 11
5.855
 20
123.235
 21
123.588
  0
LINE
  8
0
 10
5.855
 11
5.556
 20
123.588
 21
123.988
  0
LINE
  8
0
 10
5.556
 11
5.316
 20
123.988
 21
124.426
  0
LINE
  8
0
 10
5.316
 11
5.142
 20
124.426
 21
124.894
  0
LINE
  8
0
 10
5.142
 11
5.036
 20
124.894
 21
125.382
  0
LINE
  8
0
 10
5.036
 11
5
 20
125.382
 21
125.88
  0
LINE
  8
0
 10
6.555
 11
6.591
 20
138.957
 21
139.447
  0
LINE
  8
0
 10
6.591
 11
6.771
 20
139.447
 21
139.905
  0
LINE
  8
0
 10
6.771
 11
7.078
 20
139.905
 21
140.29
  0
LINE
  8
0
 10
7.078
 11
7.484
 20
140.29
 21
140.567
  0
LINE
  8
0
 10
7.484
 11
7.954
 20
140.567
 21
140.712
  0
LINE
  8
0
 10
7.954
 11
8.446
 20
140.712
 21
140.712
  0
LINE
  8
0
 10
8.446
 11
8.916
 20
140.712
 21
140.567
  0
LINE
  8
0
 10
8.916
 11
9.322
 20
140.567
 21
140.29
  0
LINE
  8
0
 10
9.322
 11
9.629
 20
140.29
 21
139.905
  0
LINE
  8
0
 10
9.629
 11
9.809
 20
139.905
 21
139.447
  0
LINE
  8
0
 10
9.809
 11
9.845
 20
139.447
 21
138.957
  0
LINE
  8
0
 10
9.845
 11
9.736
 20
138.957
 21
138.477
  0
LINE
  8
0
 10
9.736
 11
9.49
 20
138.477
 21
138.051
  0
LINE
  8
0
 10
9.49
 11
9.129
 20
138.051
 21
137.717
  0
LINE
  8
0
 10
9.129
 11
8.686
 20
137.717
 21
137.503
  0
LINE
  8
0
 10
8.686
 11
8.2
 20
137.503
 21
137.43
  0
LINE
  8
0
 10
8.2
 11
7.714
 20
137.43
 21
137.503
  0
LINE
  8
0
 10
7.714
 11
7.271
 20
137.503
 21
137.717
  0
LINE
  8
0
 10
7.271
 11
6.91
 20
137.717
 21
138.051
  0
LINE
  8
0
 10
6.91
 11
6.664
 20
138.051
 21
138.477
  0
LINE
  8
0
 10
6.664
 11
6.555
 20
138.477
 21
138.957
  0
LINE
  8
0
 10
6.555
 11
6.591
 20
160.177
 21
160.667
  0
LINE
  8
0
 10
6.591
 11
6.771
 20
160.667
 21
161.125
  0
LINE
  8
0
 10
6.771
 11
7.078
 20
161.125
 21
161.51
  0
LINE
  8
0
 10
7.078
 11
7.484
 20
161.51
 21
161.787
  0
LINE
  8
0
 10
7.484
 11
7.954
 20
161.787
 21
161.932
  0
LINE
  8
0
 10
7.954
 11
8.446
 20
161.932
 21
161.932
  0
LINE
  8
0
 10
8.446
 11
8.916
 20
161.932
 21
161.787
  0
LINE
  8
0
 10
8.916
 11
9.322
 20
161.787
 21
161.51
  0
LINE
  8
0
 10
9.322
 11
9.629
 20
161.51
 21
161.125
  0
LINE
  8
0
 10
9.629
 11
9.809
 20
161.125
 21
160.667
  0
LINE
  8
0
 10
9.809
 11
9.845
 20
160.667
 21
160.177
  0
LINE
  8
0
 10
9.845
 11
9.736
 20
160.177
 21
159.697
  0
LINE
  8
0
 10
9.736
 11
9.49
 20
159.697
 21
159.271
  0
LINE
  8
0
 10
9.49
 11
9.129
 20
159.271
 21
158.937
  0
LINE
  8
0
 10
9.129
 11
8.686
 20
158.937
 21
158.723
  0
LINE
  8
0
 10
8.686
 11
8.2
 20
158.723
 21
158.65
  0
LINE
  8
0
 10
8.2
 11
7.714
 20
158.65
 21
158.723
  0
LINE
  8
0
 10
7.714
 11
7.271
 20
158.723
 21
158.937
  0
LINE
  8
0
 10
7.271
 11
6.91
 20
158.937
 21
159.271
  0
LINE
  8
0
 10
6.91
 11
6.664
 20
159.271
 21
159.697
  0
LINE
  8
0
 10
6.664
 11
6.555
 20
159.697
 21
160.177
  0
LINE
  8
0
 10
12.56
 11
12.655
 20
73.01
 21
73.488
  0
LINE
  8
0
 10
12.655
 11
12.926
 20
73.488
 21
73.894
  0
LINE
  8
0
 10
12.926
 11
13.332
 20
73.894
 21
74.165
  0
LINE
  8
0
 10
13.332
 11
13.81
 20
74.165
 21
74.26
  0
LINE
  8
0
 10
13.81
 11
14.288
 20
74.26
 21
74.165
  0
LINE
  8
0
 10
14.288
 11
14.694
 20
74.165
 21
73.894
  0
LINE
  8
0
 10
14.694
 11
14.965
 20
73.894
 21
73.488
  0
LINE
  8
0
 10
14.965
 11
15.06
 20
73.488
 21
73.01
  0
LINE
  8
0
 10
15.06
 11
14.965
 20
73.01
 21
72.532
  0
LINE
  8
0
 10
14.965
 11
14.694
 20
72.532
 21
72.126
  0
LINE
  8
0
 10
14.694
 11
14.288
 20
72.126
 21
71.855
  0
LINE
  8
0
 10
14.288
 11
13.81
 20
71.855
 21
71.76
  0
LINE
  8
0
 10
13.81
 11
13.332
 20
71.76
 21
71.855
  0
LINE
  8
0
 10
13.332
 11
12.926
 20
71.855
 21
72.126
  0
LINE
  8
0
 10
12.926
 11
12.655
 20
72.126
 21
72.532
  0
LINE
  8
0
 10
12.655
 11
12.56
 20
72.532
 21
73.01
  0
LINE
  8
0
 10
12.56
 11
12.655
 20
116.19
 21
116.668
  0
LINE
  8
0
 10
12.655
 11
12.926
 20
116.668
 21
117.074
  0
LINE
  8
0
 10
12.926
 11
13.332
 20
117.074
 21
117.345
  0
LINE
  8
0
 10
13.332
 11
13.81
 20
117.345
 21
117.44
  0
LINE
  8
0
 10
13.81
 11
14.288
 20
117.44
 21
117.345
  0
LINE
  8
0
 10
14.288
 11
14.694
 20
117.345
 21
117.074
  0
LINE
  8
0
 10
14.694
 11
14.965
 20
117.074
 21
116.668
  0
LINE
  8
0
 10
14.965
 11
15.06
 20
116.668
 21
116.19
  0
LINE
  8
0
 10
15.06
 11
14.965
 20
116.19
 21
115.712
  0
LINE
  8
0
 10
14.965
 11
14.694
 20
115.712
 21
115.306
  0
LINE
  8
0
 10
14.694
 11
14.288
 20
115.306
 21
115.035
  0
LINE
  8
0
 10
14.288
 11
13.81
 20
115.035
 21
114.94
  0
LINE
  8
0
 10
13.81
 11
13.332
 20
114.94
 21
115.035
  0
LINE
  8
0
 10
13.332
 11
12.926
 20
115.035
 21
115.306
  0
LINE
  8
0
 10
12.926
 11
12.655
 20
115.306
 21
115.712
  0
LINE
  8
0
 10
12.655
 11
12.56
 20
115.712
 21
116.19
  0
LINE
  8
0
 10
24.468
 11
24.468
 20
7.954
 21
8.446
  0
LINE
  8
0
 10
24.468
 11
24.613
 20
8.446
 21
8.916
  0
LINE
  8
0
 10
24.613
 11
24.89
 20
8.916
 21
9.322
  0
LINE
  8
0
 10
24.89
 11
25.275
 20
9.322
 21
9.629
  0
LINE
  8
0
 10
25.275
 11
25.733
 20
9.629
 21
9.809
  0
LINE
  8
0
 10
25.733
 11
26.223
 20
9.809
 21
9.845
  0
LINE
  8
0
 10
26.223
 11
26.703
 20
9.845
 21
9.736
  0
LINE
  8
0
 10
26.703
 11
27.129
 20
9.736
 21
9.49
  0
LINE
  8
0
 10
27.129
 11
27.463
 20
9.49
 21
9.129
  0
LINE
  8
0
 10
27.463
 11
27.677
 20
9.129
 21
8.686
  0
LINE
  8
0
 10
27.677
 11
27.75
 20
8.686
 21
8.2
  0
LINE
  8
0
 10
27.75
 11
27.677
 20
8.2
 21
7.714
  0
LINE
  8
0
 10
27.677
 11
27.463
 20
7.714
 21
7.271
  0
LINE
  8
0
 10
27.463
 11
27.129
 20
7.271
 21
6.91
  0
LINE
  8
0
 10
27.129
 11
26.703
 20
6.91
 21
6.664
  0
LINE
  8
0
 10
26.703
 11
26.223
 20
6.664
 21
6.555
  0
LINE
  8
0
 10
26.223
 11
25.733
 20
6.555
 21
6.591
  0
LINE
  8
0
 10
25.733
 11
25.275
 20
6.591
 21
6.771
  0
LINE
  8
0
 10
25.275
 11
24.89
 20
6.771
 21
7.078
  0
LINE
  8
0
 10
24.89
 11
24.613
 20
7.078
 21
7.484
  0
LINE
  8
0
 10
24.613
 11
24.468
 20
7.484
 21
7.954
  0
LINE
  8
0
 10
45.688
 11
45.688
 20
7.954
 21
8.446
  0
LINE
  8
0
 10
45.688
 11
45.833
 20
8.446
 21
8.916
  0
LINE
  8
0
 10
45.833
 11
46.11
 20
8.916
 21
9.322
  0
LINE
  8
0
 10
46.11
 11
46.495
 20
9.322
 21
9.629
  0
LINE
  8
0
 10
46.495
 11
46.953
 20
9.629
 21
9.809
  0
LINE
  8
0
 10
46.953
 11
47.443
 20
9.809
 21
9.845
  0
LINE
  8
0
 10
47.443
 11
47.923
 20
9.845
 21
9.736
  0
LINE
  8
0
 10
47.923
 11
48.349
 20
9.736
 21
9.49
  0
LINE
  8
0
 10
48.349
 11
48.683
 20
9.49
 21
9.129
  0
LINE
  8
0
 10
48.683
 11
48.897
 20
9.129
 21
8.686
  0
LINE
  8
0
 10
48.897
 11
48.97
 20
8.686
 21
8.2
  0
LINE
  8
0
 10
48.97
 11
48.897
 20
8.2
 21
7.714
  0
LINE
  8
0
 10
48.897
 11
48.683
 20
7.714
 21
7.271
  0
LINE
  8
0
 10
48.683
 11
48.349
 20
7.271
 21
6.91
  0
LINE
  8
0
 10
48.349
 11
47.923
 20
6.91
 21
6.664
  0
LINE
  8
0
 10
47.923
 11
47.443
 20
6.664
 21
6.555
  0
LINE
  8
0
 10
47.443
 11
46.953
 20
6.555
 21
6.591
  0
LINE
  8
0
 10
46.953
 11
46.495
 20
6.591
 21
6.771
  0
LINE
  8
0
 10
46.495
 11
46.11
 20
6.771
 21
7.078
  0
LINE
  8
0
 10
46.11
 11
45.833
 20
7.078
 21
7.484
  0
LINE
  8
0
 10
45.833
 11
45.688
 20
7.484
 21
7.954
  0
LINE
  8
0
 10
106.54
 11
106.635
 20
73.01
 21
73.488
  0
LINE
  8
0
 10
106.635
 11
106.906
 20
73.488
 21
73.894
  0
LINE
  8
0
 10
106.906
 11
107.312
 20
73.894
 21
74.165
  0
LINE
  8
0
 10
107.312
 11
107.79
 20
74.165
 21
74.26
  0
LINE
  8
0
 10
107.79
 11
108.268
 20
74.26
 21
74.165
  0
LINE
  8
0
 10
108.268
 11
108.674
 20
74.165
 21
73.894
  0
LINE
  8
0
 10
108.674
 11
108.945
 20
73.894
 21
73.488
  0
LINE
  8
0
 10
108.945
 11
109.04
 20
73.488
 21
73.01
  0
LINE
  8
0
 10
109.04
 11
108.945
 20
73.01
 21
72.532
  0
LINE
  8
0
 10
108.945
 11
108.674
 20
72.532
 21
72.126
  0
LINE
  8
0
 10
108.674
 11
108.268
 20
72.126
 21
71.855
  0
LINE
  8
0
 10
108.268
 11
107.79
 20
71.855
 21
71.76
  0
LINE
  8
0
 10
107.79
 11
107.312
 20
71.76
 21
71.855
  0
LINE
  8
0
 10
107.312
 11
106.906
 20
71.855
 21
72.126
  0
LINE
  8
0
 10
106.906
 11
106.635
 20
72.126
 21
72.532
  0
LINE
  8
0
 10
106.635
 11
106.54
 20
72.532
 21
73.01
  0
LINE
  8
0
 10
106.54
 11
106.635
 20
116.19
 21
116.668
  0
LINE
  8
0
 10
106.635
 11
106.906
 20
116.668
 21
117.074
  0
LINE
  8
0
 10
106.906
 11
107.312
 20
117.074
 21
117.345
  0
LINE
  8
0
 10
107.312
 11
107.79
 20
117.345
 21
117.44
  0
LINE
  8
0
 10
107.79
 11
108.268
 20
117.44
 21
117.345
  0
LINE
  8
0
 10
108.268
 11
108.674
 20
117.345
 21
117.074
  0
LINE
  8
0
 10
108.674
 11
108.945
 20
117.074
 21
116.668
  0
LINE
  8
0
 10
108.945
 11
109.04
 20
116.668
 21
116.19
  0
LINE
  8
0
 10
109.04
 11
108.945
 20
116.19
 21
115.712
  0
LINE
  8
0
 10
108.945
 11
108.674
 20
115.712
 21
115.306
  0
LINE
  8
0
 10
108.674
 11
108.268
 20
115.306
 21
115.035
  0
LINE
  8
0
 10
108.268
 11
107.79
 20
115.035
 21
114.94
  0
LINE
  8
0
 10
107.79
 11
107.312
 20
114.94
 21
115.035
  0
LINE
  8
0
 10
107.312
 11
106.906
 20
115.035
 21
115.306
  0
LINE
  8
0
 10
106.906
 11
106.635
 20
115.306
 21
115.712
  0
LINE
  8
0
 10
106.635
 11
106.54
 20
115.712
 21
116.19
  0
LINE
  8
0
 10
182.368
 11
182.368
 20
25.154
 21
25.646
  0
LINE
  8
0
 10
182.368
 11
182.513
 20
25.646
 21
26.116
  0
LINE
  8
0
 10
182.513
 11
182.79
 20
26.116
 21
26.522
  0
LINE
  8
0
 10
182.79
 11
183.175
 20
26.522
 21
26.829
  0
LINE
  8
0
 10
183.175
 11
183.633
 20
26.829
 21
27.009
  0
LINE
  8
0
 10
183.633
 11
184.123
 20
27.009
 21
27.045
  0
LINE
  8
0
 10
184.123
 11
184.603
 20
27.045
 21
26.936
  0
LINE
  8
0
 10
184.603
 11
185.029
 20
26.936
 21
26.69
  0
LINE
  8
0
 10
185.029
 11
185.363
 20
26.69
 21
26.329
  0
LINE
  8
0
 10
185.363
 11
185.577
 20
26.329
 21
25.886
  0
LINE
  8
0
 10
185.577
 11
185.65
 20
25.886
 21
25.4
  0
LINE
  8
0
 10
185.65
 11
185.577
 20
25.4
 21
24.914
  0
LINE
  8
0
 10
185.577
 11
185.363
 20
24.914
 21
24.471
  0
LINE
  8
0
 10
185.363
 11
185.029
 20
24.471
 21
24.11
  0
LINE
  8
0
 10
185.029
 11
184.603
 20
24.11
 21
23.864
  0
LINE
  8
0
 10
184.603
 11
184.123
 20
23.864
 21
23.755
  0
LINE
  8
0
 10
184.123
 11
183.633
 20
23.755
 21
23.791
  0
LINE
  8
0
 10
183.633
 11
183.175
 20
23.791
 21
23.971
  0
LINE
  8
0
 10
183.175
 11
182.79
 20
23.971
 21
24.278
  0
LINE
  8
0
 10
182.79
 11
182.513
 20
24.278
 21
24.684
  0
LINE
  8
0
 10
182.513
 11
182.368
 20
24.684
 21
25.154
  0
LINE
  8
0
 10
182.368
 11
182.368
 20
109.154
 21
109.646
  0
LINE
  8
0
 10
182.368
 11
182.513
 20
109.646
 21
110.116
  0
LINE
  8
0
 10
182.513
 11
182.79
 20
110.116
 21
110.522
  0
LINE
  8
0
 10
182.79
 11
183.175
 20
110.522
 21
110.829
  0
LINE
  8
0
 10
183.175
 11
183.633
 20
110.829
 21
111.009
  0
LINE
  8
0
 10
183.633
 11
184.123
 20
111.009
 21
111.045
  0
LINE
  8
0
 10
184.123
 11
184.603
 20
111.045
 21
110.936
  0
LINE
  8
0
 10
184.603
 11
185.029
 20
110.936
 21
110.69
  0
LINE
  8
0
 10
185.029
 11
185.363
 20
110.69
 21
110.329
  0
LINE
  8
0
 10
185.363
 11
185.577
 20
110.329
 21
109.886
  0
LINE
  8
0
 10
185.577
 11
185.65
 20
109.886
 21
109.4
  0
LINE
  8
0
 10
185.65
 11
185.577
 20
109.4
 21
108.914
  0
LINE
  8
0
 10
185.577
 11
185.363
 20
108.914
 21
108.471
  0
LINE
  8
0
 10
185.363
 11
185.029
 20
108.471
 21
108.11
  0
LINE
  8
0
 10
185.029
 11
184.603
 20
108.11
 21
107.864
  0
LINE
  8
0
 10
184.603
 11
184.123
 20
107.864
 21
107.755
  0
LINE
  8
0
 10
184.123
 11
183.633
 20
107.755
 21
107.791
  0
LINE
  8
0
 10
183.633
 11
183.175
 20
107.791
 21
107.971
  0
LINE
  8
0
 10
183.175
 11
182.79
 20
107.971
 21
108.278
  0
LINE
  8
0
 10
182.79
 11
182.513
 20
108.278
 21
108.684
  0
LINE
  8
0
 10
182.513
 11
182.368
 20
108.684
 21
109.154
  0
LINE
  8
0
 10
248.68
 11
248.721
 20
8
 21
8.494
  0
LINE
  8
0
 10
248.721
 11
248.843
 20
8.494
 21
8.974
  0
LINE
  8
0
 10
248.843
 11
249.042
 20
8.974
 21
9.428
  0
LINE
  8
0
 10
249.042
 11
249.313
 20
9.428
 21
9.843
  0
LINE
  8
0
 10
249.313
 11
249.648
 20
9.843
 21
10.207
  0
LINE
  8
0
 10
249.648
 11
250.039
 20
10.207
 21
10.511
  0
LINE
  8
0
 10
250.039
 11
250.475
 20
10.511
 21
10.747
  0
LINE
  8
0
 10
250.475
 11
250.944
 20
10.747
 21
10.908
  0
LINE
  8
0
 10
250.944
 11
251.432
 20
10.908
 21
10.99
  0
LINE
  8
0
 10
251.432
 11
251.928
 20
10.99
 21
10.99
  0
LINE
  8
0
 10
251.928
 11
252.416
 20
10.99
 21
10.908
  0
LINE
  8
0
 10
252.416
 11
252.885
 20
10.908
 21
10.747
  0
LINE
  8
0
 10
252.885
 11
253.321
 20
10.747
 21
10.511
  0
LINE
  8
0
 10
253.321
 11
253.712
 20
10.511
 21
10.207
  0
LINE
  8
0
 10
253.712
 11
254.047
 20
10.207
 21
9.843
  0
LINE
  8
0
 10
254.047
 11
254.318
 20
9.843
 21
9.428
  0
LINE
  8
0
 10
254.318
 11
254.517
 20
9.428
 21
8.974
  0
LINE
  8
0
 10
254.517
 11
254.639
 20
8.974
 21
8.494
  0
LINE
  8
0
 10
254.639
 11
254.68
 20
8.494
 21
8
  0
LINE
  8
0
 10
254.68
 11
254.639
 20
8
 21
7.506
  0
LINE
  8
0
 10
254.639
 11
254.517
 20
7.506
 21
7.026
  0
LINE
  8
0
 10
254.517
 11
254.318
 20
7.026
 21
6.572
  0
LINE
  8
0
 10
254.318
 11
254.047
 20
6.572
 21
6.157
  0
LINE
  8
0
 10
254.047
 11
253.712
 20
6.157
 21
5.793
  0
LINE
  8
0
 10
253.712
 11
253.321
 20
5.793
 21
5.489
  0
LINE
  8
0
 10
253.321
 11
252.885
 20
5.489
 21
5.253
  0
LINE
  8
0
 10
252.885
 11
252.416
 20
5.253
 21
5.092
  0
LINE
  8
0
 10
252.416
 11
251.928
 20
5.092
 21
5.01
  0
LINE
  8
0
 10
251.928
 11
251.432
 20
5.01
 21
5.01
  0
LINE
  8
0
 10
251.432
 11
250.944
 20
5.01
 21
5.092
  0
LINE
  8
0
 10
250.944
 11
250.475
 20
5.092
 21
5.253
  0
LINE
  8
0
 10
250.475
 11
250.039
 20
5.253
 21
5.489
  0
LINE
  8
0
 10
250.039
 11
249.648
 20
5.489
 21
5.793
  0
LINE
  8
0
 10
249.648
 11
249.313
 20
5.793
 21
6.157
  0
LINE
  8
0
 10
249.313
 11
249.042
 20
6.157
 21
6.572
  0
LINE
  8
0
 10
249.042
 11
248.843
 20
6.572
 21
7.026
  0
LINE
  8
0
 10
248.843
 11
248.721
 20
7.026
 21
7.506
  0
LINE
  8
0
 10
248.721
 11
248.68
 20
7.506
 21
8
  0
LINE
  8
0
 10
261.58
 11
261.638
 20
7
 21
7.479
  0
LINE
  8
0
 10
261.638
 11
261.809
 20
7.479
 21
7.929
  0
LINE
  8
0
 10
261.809
 11
262.083
 20
7.929
 21
8.326
  0
LINE
  8
0
 10
262.083
 11
262.444
 20
8.326
 21
8.646
  0
LINE
  8
0
 10
262.444
 11
262.871
 20
8.646
 21
8.87
  0
LINE
  8
0
 10
262.871
 11
263.339
 20
8.87
 21
8.985
  0
LINE
  8
0
 10
263.339
 11
263.821
 20
8.985
 21
8.985
  0
LINE
  8
0
 10
263.821
 11
264.289
 20
8.985
 21
8.87
  0
LINE
  8
0
 10
264.289
 11
264.716
 20
8.87
 21
8.646
  0
LINE
  8
0
 10
264.716
 11
265.077
 20
8.646
 21
8.326
  0
LINE
  8
0
 10
265.077
 11
265.351
 20
8.326
 21
7.929
  0
LINE
  8
0
 10
265.351
 11
265.522
 20
7.929
 21
7.479
  0
LINE
  8
0
 10
265.522
 11
265.58
 20
7.479
 21
7
  0
LINE
  8
0
 10
265.58
 11
265.522
 20
7
 21
6.521
  0
LINE
  8
0
 10
265.522
 11
265.351
 20
6.521
 21
6.071
  0
LINE
  8
0
 10
265.351
 11
265.077
 20
6.071
 21
5.674
  0
LINE
  8
0
 10
265.077
 11
264.716
 20
5.674
 21
5.354
  0
LINE
  8
0
 10
264.716
 11
264.289
 20
5.354
 21
5.13
  0
LINE
  8
0
 10
264.289
 11
263.821
 20
5.13
 21
5.015
  0
LINE
  8
0
 10
263.821
 11
263.339
 20
5.015
 21
5.015
  0
LINE
  8
0
 10
263.339
 11
262.871
 20
5.015
 21
5.13
  0
LINE
  8
0
 10
262.871
 11
262.444
 20
5.13
 21
5.354
  0
LINE
  8
0
 10
262.444
 11
262.083
 20
5.354
 21
5.674
  0
LINE
  8
0
 10
262.083
 11
261.809
 20
5.674
 21
6.071
  0
LINE
  8
0
 10
261.809
 11
261.638
 20
6.071
 21
6.521
  0
LINE
  8
0
 10
261.638
 11
261.58
 20
6.521
 21
7
  0
LINE
  8
0
 10
275.048
 11
275.048
 20
7.954
 21
8.446
  0
LINE
  8
0
 10
275.048
 11
275.193
 20
8.446
 21
8.916
  0
LINE
  8
0
 10
275.193
 11
275.47
 20
8.916
 21
9.322
  0
LINE
  8
0
 10
275.47
 11
275.855
 20
9.322
 21
9.629
  0
LINE
  8
0
 10
275.855
 11
276.313
 20
9.629
 21
9.809
  0
LINE
  8
0
 10
276.313
 11
276.803
 20
9.809
 21
9.845
  0
LINE
  8
0
 10
276.803
 11
277.283
 20
9.845
 21
9.736
  0
LINE
  8
0
 10
277.283
 11
277.709
 20
9.736
 21
9.49
  0
LINE
  8
0
 10
277.709
 11
278.043
 20
9.49
 21
9.129
  0
LINE
  8
0
 10
278.043
 11
278.257
 20
9.129
 21
8.686
  0
LINE
  8
0
 10
278.257
 11
278.33
 20
8.686
 21
8.2
  0
LINE
  8
0
 10
278.33
 11
278.257
 20
8.2
 21
7.714
  0
LINE
  8
0
 10
278.257
 11
278.043
 20
7.714
 21
7.271
  0
LINE
  8
0
 10
278.043
 11
277.709
 20
7.271
 21
6.91
  0
LINE
  8
0
 10
277.709
 11
277.283
 20
6.91
 21
6.664
  0
LINE
  8
0
 10
277.283
 11
276.803
 20
6.664
 21
6.555
  0
LINE
  8
0
 10
276.803
 11
276.313
 20
6.555
 21
6.591
  0
LINE
  8
0
 10
276.313
 11
275.855
 20
6.591
 21
6.771
  0
LINE
  8
0
 10
275.855
 11
275.47
 20
6.771
 21
7.078
  0
LINE
  8
0
 10
275.47
 11
275.193
 20
7.078
 21
7.484
  0
LINE
  8
0
 10
275.193
 11
275.048
 20
7.484
 21
7.954
  0
LINE
  8
0
 10
296.268
 11
296.268
 20
7.954
 21
8.446
  0
LINE
  8
0
 10
296.268
 11
296.413
 20
8.446
 21
8.916
  0
LINE
  8
0
 10
296.413
 11
296.69
 20
8.916
 21
9.322
  0
LINE
  8
0
 10
296.69
 11
297.075
 20
9.322
 21
9.629
  0
LINE
  8
0
 10
297.075
 11
297.533
 20
9.629
 21
9.809
  0
LINE
  8
0
 10
297.533
 11
298.023
 20
9.809
 21
9.845
  0
LINE
  8
0
 10
298.023
 11
298.503
 20
9.845
 21
9.736
  0
LINE
  8
0
 10
298.503
 11
298.929
 20
9.736
 21
9.49
  0
LINE
  8
0
 10
298.929
 11
299.263
 20
9.49
 21
9.129
  0
LINE
  8
0
 10
299.263
 11
299.477
 20
9.129
 21
8.686
  0
LINE
  8
0
 10
299.477
 11
299.55
 20
8.686
 21
8.2
  0
LINE
  8
0
 10
299.55
 11
299.477
 20
8.2
 21
7.714
  0
LINE
  8
0
 10
299.477
 11
299.263
 20
7.714
 21
7.271
  0
LINE
  8
0
 10
299.263
 11
298.929
 20
7.271
 21
6.91
  0
LINE
  8
0
 10
298.929
 11
298.503
 20
6.91
 21
6.664
  0
LINE
  8
0
 10
298.503
 11
298.023
 20
6.664
 21
6.555
  0
LINE
  8
0
 10
298.023
 11
297.533
 20
6.555
 21
6.591
  0
LINE
  8
0
 10
297.533
 11
297.075
 20
6.591
 21
6.771
  0
LINE
  8
0
 10
297.075
 11
296.69
 20
6.771
 21
7.078
  0
LINE
  8
0
 10
296.69
 11
296.413
 20
7.078
 21
7.484
  0
LINE
  8
0
 10
296.413
 11
296.268
 20
7.484
 21
7.954
  0
LINE
  8
0
 10
308.368
 11
308.368
 20
25.154
 21
25.646
  0
LINE
  8
0
 10
308.368
 11
308.513
 20
25.646
 21
26.116
  0
LINE
  8
0
 10
308.513
 11
308.79
 20
26.116
 21
26.522
  0
LINE
  8
0
 10
308.79
 11
309.175
 20
26.522
 21
26.829
  0
LINE
  8
0
 10
309.175
 11
309.633
 20
26.829
 21
27.009
  0
LINE
  8
0
 10
309.633
 11
310.123
 20
27.009
 21
27.045
  0
LINE
  8
0
 10
310.123
 11
310.603
 20
27.045
 21
26.936
  0
LINE
  8
0
 10
310.603
 11
311.029
 20
26.936
 21
26.69
  0
LINE
  8
0
 10
311.029
 11
311.363
 20
26.69
 21
26.329
  0
LINE
  8
0
 10
311.363
 11
311.577
 20
26.329
 21
25.886
  0
LINE
  8
0
 10
311.577
 11
311.65
 20
25.886
 21
25.4
  0
LINE
  8
0
 10
311.65
 11
311.577
 20
25.4
 21
24.914
  0
LINE
  8
0
 10
311.577
 11
311.363
 20
24.914
 21
24.471
  0
LINE
  8
0
 10
311.363
 11
311.029
 20
24.471
 21
24.11
  0
LINE
  8
0
 10
311.029
 11
310.603
 20
24.11
 21
23.864
  0
LINE
  8
0
 10
310.603
 11
310.123
 20
23.864
 21
23.755
  0
LINE
  8
0
 10
310.123
 11
309.633
 20
23.755
 21
23.791
  0
LINE
  8
0
 10
309.633
 11
309.175
 20
23.791
 21
23.971
  0
LINE
  8
0
 10
309.175
 11
308.79
 20
23.971
 21
24.278
  0
LINE
  8
0
 10
308.79
 11
308.513
 20
24.278
 21
24.684
  0
LINE
  8
0
 10
308.513
 11
308.368
 20
24.684
 21
25.154
  0
LINE
  8
0
 10
308.368
 11
308.368
 20
109.154
 21
109.646
  0
LINE
  8
0
 10
308.368
 11
308.513
 20
109.646
 21
110.116
  0
LINE
  8
0
 10
308.513
 11
308.79
 20
110.116
 21
110.522
  0
LINE
  8
0
 10
308.79
 11
309.175
 20
110.522
 21
110.829
  0
LINE
  8
0
 10
309.175
 11
309.633
 20
110.829
 21
111.009
  0
LINE
  8
0
 10
309.633
 11
310.123
 20
111.009
 21
111.045
  0
LINE
  8
0
 10
310.123
 11
310.603
 20
111.045
 21
110.936
  0
LINE
  8
0
 10
310.603
 11
311.029
 20
110.936
 21
110.69
  0
LINE
  8
0
 10
311.029
 11
311.363
 20
110.69
 21
110.329
  0
LINE
  8
0
 10
311.363
 11
311.577
 20
110.329
 21
109.886
  0
LINE
  8
0
 10
311.577
 11
311.65
 20
109.886
 21
109.4
  0
LINE
  8
0
 10
311.65
 11
311.577
 20
109.4
 21
108.914
  0
LINE
  8
0
 10
311.577
 11
311.363
 20
108.914
 21
108.471
  0
LINE
  8
0
 10
311.363
 11
311.029
 20
108.471
 21
108.11
  0
LINE
  8
0
 10
311.029
 11
310.603
 20
108.11
 21
107.864
  0
LINE
  8
0
 10
310.603
 11
310.123
 20
107.864
 21
107.755
  0
LINE
  8
0
 10
310.123
 11
309.633
 20
107.755
 21
107.791
  0
LINE
  8
0
 10
309.633
 11
309.175
 20
107.791
 21
107.971
  0
LINE
  8
0
 10
309.175
 11
308.79
 20
107.971
 21
108.278
  0
LINE
  8
0
 10
308.79
 11
308.513
 20
108.278
 21
108.684
  0
LINE
  8
0
 10
308.513
 11
308.368
 20
108.684
 21
109.154
  0
ENDSEC
  0
SECTION
  2
OBJECTS
  0
DICTIONARY
  0
ENDSEC
  0
EOF
